  0
SECTION
  2
HEADER
  9
$ACADVER
  1
AC1009
  9
$INSBASE
 10
0.0
 20
0.0
 30
0.0
  9
$EXTMIN
 10
29929.319932825911
 20
-11274.30556148201
 30
0.0
  9
$EXTMAX
 10
36392.085443260366
 20
-10654.43044690571
 30
0.0
  9
$LIMMIN
 10
0.0
 20
0.0
  9
$LIMMAX
 10
8410.0
 20
5940.0
  9
$ORTHOMODE
 70
     1
  9
$REGENMODE
 70
     1
  9
$FILLMODE
 70
     1
  9
$QTEXTMODE
 70
     0
  9
$MIRRTEXT
 70
     1
  9
$DRAGMODE
 70
     2
  9
$LTSCALE
 40
30.0
  9
$OSMODE
 70
   183
  9
$ATTMODE
 70
     1
  9
$TEXTSIZE
 40
35.0
  9
$TRACEWID
 40
0.05
  9
$TEXTSTYLE
  7
STANDARD
  9
$CLAYER
  8
D-STR
  9
$CELTYPE
  6
BYLAYER
  9
$CECOLOR
 62
   256
  9
$DIMSCALE
 40
10.0
  9
$DIMASZ
 40
2.0
  9
$DIMEXO
 40
0.5
  9
$DIMDLI
 40
7.0
  9
$DIMRND
 40
0.0
  9
$DIMDLE
 40
3.0
  9
$DIMEXE
 40
1.25
  9
$DIMTP
 40
0.0
  9
$DIMTM
 40
0.0
  9
$DIMTXT
 40
3.5
  9
$DIMCEN
 40
1.0
  9
$DIMTSZ
 40
0.0
  9
$DIMTOL
 70
     0
  9
$DIMLIM
 70
     0
  9
$DIMTIH
 70
     0
  9
$DIMTOH
 70
     0
  9
$DIMSE1
 70
     0
  9
$DIMSE2
 70
     0
  9
$DIMTAD
 70
     0
  9
$DIMZIN
 70
     0
  9
$DIMBLK
  1
OPEN_ARROW
  9
$DIMASO
 70
     1
  9
$DIMSHO
 70
     1
  9
$DIMPOST
  1
 
  9
$DIMAPOST
  1
 
  9
$DIMALT
 70
     0
  9
$DIMALTD
 70
     2
  9
$DIMALTF
 40
25.399999999999999
  9
$DIMLFAC
 40
1.0
  9
$DIMTOFL
 70
     1
  9
$DIMTVP
 40
0.7
  9
$DIMTIX
 70
     1
  9
$DIMSOXD
 70
     1
  9
$DIMSAH
 70
     0
  9
$DIMBLK1
  1

  9
$DIMBLK2
  1

  9
$DIMSTYLE
  2
DIMST_SXF9
  9
$DIMCLRD
 70
   256
  9
$DIMCLRE
 70
   256
  9
$DIMCLRT
 70
   256
  9
$DIMTFAC
 40
1.0
  9
$DIMGAP
 40
0.09
  9
$LUNITS
 70
     2
  9
$LUPREC
 70
     1
  9
$SKETCHINC
 40
0.1
  9
$FILLETRAD
 40
0.0
  9
$AUNITS
 70
     0
  9
$AUPREC
 70
     0
  9
$MENU
  1
acad
  9
$ELEVATION
 40
0.0
  9
$PELEVATION
 40
0.0
  9
$THICKNESS
 40
0.0
  9
$LIMCHECK
 70
     0
  9
$BLIPMODE
 70
     0
  9
$CHAMFERA
 40
0.0
  9
$CHAMFERB
 40
0.0
  9
$SKPOLY
 70
     0
  9
$TDCREATE
 40
2451702.6131513892
  9
$TDUPDATE
 40
2454898.7518842141
  9
$TDINDWG
 40
2.8032442245000002
  9
$TDUSRTIMER
 40
2.8032442245000002
  9
$USRTIMER
 70
     1
  9
$ANGBASE
 50
0.0
  9
$ANGDIR
 70
     0
  9
$PDMODE
 70
     0
  9
$PDSIZE
 40
0.0
  9
$PLINEWID
 40
0.0
  9
$COORDS
 70
     2
  9
$SPLFRAME
 70
     0
  9
$SPLINETYPE
 70
     6
  9
$SPLINESEGS
 70
     8
  9
$ATTDIA
 70
     0
  9
$ATTREQ
 70
     1
  9
$HANDLING
 70
     1
  9
$HANDSEED
  5
32746
  9
$SURFTAB1
 70
     6
  9
$SURFTAB2
 70
     6
  9
$SURFTYPE
 70
     6
  9
$SURFU
 70
     6
  9
$SURFV
 70
     6
  9
$UCSNAME
  2

  9
$UCSORG
 10
30238.86125753562
 20
-8425.6378709790824
 30
0.0
  9
$UCSXDIR
 10
1.0
 20
0.0
 30
0.0
  9
$UCSYDIR
 10
0.0
 20
1.0
 30
0.0
  9
$PUCSNAME
  2

  9
$PUCSORG
 10
0.0
 20
0.0
 30
0.0
  9
$PUCSXDIR
 10
1.0
 20
0.0
 30
0.0
  9
$PUCSYDIR
 10
0.0
 20
1.0
 30
0.0
  9
$USERI1
 70
     0
  9
$USERI2
 70
     0
  9
$USERI3
 70
     0
  9
$USERI4
 70
     0
  9
$USERI5
 70
    11
  9
$USERR1
 40
0.0
  9
$USERR2
 40
0.0
  9
$USERR3
 40
0.0
  9
$USERR4
 40
0.0
  9
$USERR5
 40
0.0
  9
$WORLDVIEW
 70
     1
  9
$SHADEDGE
 70
     3
  9
$SHADEDIF
 70
    70
  9
$TILEMODE
 70
     1
  9
$MAXACTVP
 70
    16
  9
$PLIMCHECK
 70
     1
  9
$PEXTMIN
 10
20.0
 20
20.0
 30
0.0
  9
$PEXTMAX
 10
821.0
 20
574.0
 30
0.0
  9
$PLIMMIN
 10
0.0002598945977841
 20
0.0011733753433703
  9
$PLIMMAX
 10
841.00025989459766
 20
594.00117337534334
  9
$UNITMODE
 70
     0
  9
$VISRETAIN
 70
     0
  9
$PLINEGEN
 70
     0
  9
$PSLTSCALE
 70
     1
  0
ENDSEC
  0
SECTION
  2
TABLES
  0
TABLE
  2
VPORT
 70
     1
  0
VPORT
  2
*ACTIVE
 70
     0
 10
0.0
 20
0.0
 11
1.0
 21
1.0
 12
36389.998927845132
 22
-11270.73058824803
 13
0.0
 23
0.0
 14
1.0
 24
1.0
 15
0.0
 25
0.0
 16
0.0
 26
0.0
 36
1.0
 17
0.0
 27
0.0
 37
0.0
 40
11.198529973876161
 41
1.9411764705882351
 42
50.0
 43
0.0
 44
0.0
 50
0.0
 51
0.0
 71
     0
 72
   100
 73
     1
 74
     1
 75
     0
 76
     0
 77
     0
 78
     0
  0
ENDTAB
  0
TABLE
  2
LTYPE
 70
     4
  0
LTYPE
  2
CONTINUOUS
 70
     0
  3
Solid line
 72
    65
 73
     0
 40
0.0
  0
LTYPE
  2
DASHED2
 70
     0
  3
Dashed (.5x) _ _ _ _ _ _ _ _ _ _ _ _ _ _ _ _ _
 72
    65
 73
     2
 40
0.375
 49
0.25
 49
-0.125
  0
LTYPE
  2
DOT
 70
     0
  3
-   -   -   -   -   -   -   -   
 72
    65
 73
     2
 40
2.5
 49
0.625
 49
-1.875
  0
LTYPE
  2
DASHED
 70
     0
  3
Dashed __ __ __ __ __ __ __ __ __ __ __ __ __ _
 72
    65
 73
     2
 40
0.75
 49
0.5
 49
-0.25
  0
ENDTAB
  0
TABLE
  2
LAYER
 70
    20
  0
LAYER
  2
0
 70
     0
 62
     7
  6
CONTINUOUS
  0
LAYER
  2
DEFPOINTS
 70
     0
 62
     7
  6
CONTINUOUS
  0
LAYER
  2
D-STR-DIM
 70
     0
 62
     7
  6
CONTINUOUS
  0
LAYER
  2
D-TTL
 70
     0
 62
     2
  6
CONTINUOUS
  0
LAYER
  2
D-STR
 70
     0
 62
     1
  6
CONTINUOUS
  0
LAYER
  2
D-TTL-LINE
 70
     0
 62
     7
  6
CONTINUOUS
  0
LAYER
  2
D-TTL-TXT
 70
     0
 62
     7
  6
CONTINUOUS
  0
LAYER
  2
D-TTL-FRAM
 70
     0
 62
     2
  6
CONTINUOUS
  0
LAYER
  2
D-STR-HTXT
 70
     0
 62
     7
  6
CONTINUOUS
  0
LAYER
  2
D-STR-STR1
 70
     0
 62
     1
  6
DASHED2
  0
LAYER
  2
D-WORK
 70
     0
 62
    -7
  6
CONTINUOUS
  0
LAYER
  2
D-DCR-HCH1
 70
     0
 62
     7
  6
CONTINUOUS
  0
LAYER
  2
D-MTR-TXT
 70
     0
 62
     7
  6
CONTINUOUS
  0
LAYER
  2
本体
 70
     0
 62
     7
  6
CONTINUOUS
  0
LAYER
  2
寸法
 70
     0
 62
     7
  6
CONTINUOUS
  0
LAYER
  2
1-0
 70
     0
 62
     7
  6
CONTINUOUS
  0
LAYER
  2
1-2
 70
     0
 62
     7
  6
CONTINUOUS
  0
LAYER
  2
ADD_LINE
 70
     0
 62
     7
  6
CONTINUOUS
  0
LAYER
  2
D-STR-STRC_標識_
 70
     0
 62
     7
  6
CONTINUOUS
  0
LAYER
  2
D-STR-切廻し道路
 70
     0
 62
   171
  6
CONTINUOUS
  0
ENDTAB
  0
TABLE
  2
STYLE
 70
     7
  0
STYLE
  2
STANDARD
 70
     0
 40
0.0
 41
1.0
 50
0.0
 71
     0
 42
35.0
  3
txt
  4

  0
STYLE
  2
TATE
 70
     0
 40
0.0
 41
1.0
 50
0.0
 71
     0
 42
0.8
  3
txt
  4

  0
STYLE
  2
MSゴシック
 70
     0
 40
0.0
 41
1.0
 50
0.0
 71
     0
 42
4.4683921592363731
  3
txt
  4

  0
STYLE
  2

 70
     1
 40
0.0
 41
1.0
 50
0.0
 71
     0
 42
35.0
  3
ltypeshp.shx
  4

  0
STYLE
  2
ＭＳ_ゴシック
 70
     0
 40
0.0
 41
1.0
 50
0.0
 71
     0
 42
2.5
  3
txt
  4

  0
STYLE
  2
寸法文字
 70
     0
 40
0.0
 41
1.0
 50
0.0
 71
     0
 42
2.5
  3
txt
  4

  0
STYLE
  2
MSGOTHI
 70
     0
 40
0.0
 41
1.0
 50
0.0
 71
     0
 42
2000.0
  3
txt
  4

  0
ENDTAB
  0
TABLE
  2
VIEW
 70
     0
  0
ENDTAB
  0
TABLE
  2
UCS
 70
     0
  0
ENDTAB
  0
TABLE
  2
APPID
 70
    25
  0
APPID
  2
ACAD
 70
     0
  0
APPID
  2
AUDIT_D_050316185238-0
 70
     0
  0
APPID
  2
CDSET
 70
     0
  0
APPID
  2
CONTENTTABDATA
 70
     0
  0
APPID
  2
CONTENTCURRENTTAB
 70
     0
  0
APPID
  2
ACE-LT__COPYRIGHT_TRIALSOFT-JPN
 70
     0
  0
APPID
  2
ACAD_DSTYLE_DIMTEXT_FILL
 70
     0
  0
APPID
  2
ACAD_DSTYLE_DIMEXT_LENGTH
 70
     0
  0
APPID
  2
ACAD_DSTYLE_DIMEXT_ENABLED
 70
     0
  0
APPID
  2
ACAD_DSTYLE_DIM_LINETYPE
 70
     0
  0
APPID
  2
ACAD_DSTYLE_DIM_EXT1_LINETYPE
 70
     0
  0
APPID
  2
ACAD_DSTYLE_DIM_EXT2_LINETYPE
 70
     0
  0
APPID
  2
ACAD_DSTYLE_DIMJOGGED_JOGA
 70
     0
  0
APPID
  2
ACAD_PSEXT
 70
     0
  0
APPID
  2
ACAD_DSTYLE_DIMARC_LENGTH_
 70
     0
  0
APPID
  2
ACAD_DSTYLE_DIMFLIPARROW_SYMBOL
 70
     0
  0
APPID
  2
ACAD_DSTYLE_DIMFLIPARROW_W
 70
     0
  0
APPID
  2
DCO15
 70
     0
  0
APPID
  2
GENIUS_GENODEF_13
 70
     0
  0
APPID
  2
GENIUS_GENOREF_13
 70
     0
  0
APPID
  2
GENIUS_GENOBJ-N-FIL_13
 70
     0
  0
APPID
  2
GENIUS_GENOBJ-N-CEN_13
 70
     0
  0
APPID
  2
ACAECLAYERSTANDARD
 70
     0
  0
APPID
  2
ACAD_EXEMPT_FROM_CAD_STANDARDS
 70
     0
  0
APPID
  2
ADE
 70
     0
  0
ENDTAB
  0
TABLE
  2
DIMSTYLE
 70
     9
  0
DIMSTYLE
  2
STANDARD
 70
     0
  3

  4

  5

  6

  7

 40
1.0
 41
3.0
 42
3.0
 43
10.0
 44
2.0
 45
1.0
 46
0.0
 47
0.0
 48
0.0
140
3.0
141
3.0
142
0.0
143
25.399999999999999
144
1.0
145
0.0
146
1.0
147
2.0
 71
     0
 72
     0
 73
     0
 74
     0
 75
     0
 76
     0
 77
     3
 78
     8
170
     0
171
     2
172
     0
173
     0
174
     0
175
     0
176
   256
177
   256
178
     3
  0
DIMSTYLE
  2
S10
 70
     0
  3

  4

  5
OPEN30
  6

  7

 40
10.0
 41
2.5
 42
1.0
 43
8.0
 44
1.0
 45
0.0
 46
0.0
 47
0.0
 48
0.0
140
3.5
141
0.0
142
0.0
143
25.399999999999999
144
1.0
145
0.0
146
1.0
147
0.7
 71
     0
 72
     0
 73
     0
 74
     0
 75
     0
 76
     0
 77
     1
 78
     0
170
     0
171
     2
172
     1
173
     0
174
     1
175
     0
176
   256
177
   256
178
   256
  0
DIMSTYLE
  2
DIMST_SXF9
 70
     0
  3
 
  4
 
  5
OPEN_ARROW
  6

  7

 40
1.0
 41
7.5
 42
0.5
 43
7.0
 44
1.25
 45
0.0
 46
3.0
 47
0.0
 48
0.0
140
3.5
141
1.0
142
0.0
143
25.399999999999999
144
1.0
145
0.7
146
1.0
147
0.09
 71
     0
 72
     0
 73
     0
 74
     0
 75
     0
 76
     0
 77
     0
 78
     0
170
     0
171
     2
172
     1
173
     0
174
     1
175
     1
176
   256
177
   256
178
   256
  0
DIMSTYLE
  2
S1
 70
     0
  3

  4

  5
OPEN30
  6

  7

 40
1.0
 41
2.5
 42
1.0
 43
8.0
 44
1.0
 45
0.0
 46
0.0
 47
0.0
 48
0.0
140
3.5
141
0.0
142
0.0
143
25.399999999999999
144
1.0
145
0.0
146
1.0
147
0.7
 71
     0
 72
     0
 73
     0
 74
     0
 75
     0
 76
     0
 77
     1
 78
     0
170
     0
171
     2
172
     1
173
     0
174
     1
175
     0
176
   256
177
   256
178
   256
  0
DIMSTYLE
  2
5
 70
     0
  3

  4

  5
OPEN30
  6

  7

 40
5.0
 41
2.5
 42
1.0
 43
7.0
 44
1.0
 45
0.0
 46
0.0
 47
0.0
 48
0.0
140
3.5
141
2.5
142
0.0
143
0.03937007874016
144
1.0
145
0.0
146
1.0
147
0.7
 71
     0
 72
     0
 73
     0
 74
     0
 75
     0
 76
     0
 77
     1
 78
     8
170
     0
171
     3
172
     0
173
     0
174
     0
175
     0
176
   256
177
   256
178
   256
  0
DIMSTYLE
  2
50
 70
     0
  3

  4

  5
OPEN30
  6

  7

 40
50.0
 41
2.5
 42
1.0
 43
8.0
 44
1.0
 45
0.0
 46
0.0
 47
0.0
 48
0.0
140
3.5
141
2.5
142
0.0
143
0.03937007874016
144
1.0
145
0.0
146
1.0
147
0.7
 71
     0
 72
     0
 73
     0
 74
     0
 75
     0
 76
     0
 77
     1
 78
     8
170
     0
171
     3
172
     1
173
     0
174
     0
175
     0
176
   256
177
   256
178
   256
  0
DIMSTYLE
  2
2
 70
     0
  3

  4

  5
OPEN30
  6

  7

 40
2.0
 41
2.5
 42
1.0
 43
7.0
 44
1.0
 45
0.0
 46
0.0
 47
0.0
 48
0.0
140
3.5
141
2.5
142
0.0
143
0.03937007874016
144
1.0
145
0.0
146
1.0
147
0.7
 71
     0
 72
     0
 73
     0
 74
     0
 75
     0
 76
     0
 77
     1
 78
     8
170
     0
171
     3
172
     0
173
     0
174
     0
175
     0
176
   256
177
   256
178
   256
  0
DIMSTYLE
  2
20
 70
     0
  3

  4

  5
OPEN30
  6

  7

 40
20.0
 41
2.5
 42
1.0
 43
8.0
 44
1.0
 45
0.0
 46
0.0
 47
0.0
 48
0.0
140
3.5
141
2.5
142
0.0
143
0.03937007874016
144
1.0
145
0.0
146
1.0
147
0.7
 71
     0
 72
     0
 73
     0
 74
     0
 75
     0
 76
     0
 77
     1
 78
     8
170
     0
171
     3
172
     1
173
     0
174
     0
175
     0
176
   256
177
   256
178
   256
  0
DIMSTYLE
  2
STANDARD100
 70
     0
  3

  4

  5
OPEN
  6

  7

 40
0.5
 41
2.0
 42
5.0
 43
0.38
 44
0.0
 45
0.0
 46
0.0
 47
0.0
 48
0.0
140
3.5
141
0.09
142
0.0
143
25.399999999999999
144
200.0
145
0.0
146
1.0
147
0.09
 71
     0
 72
     0
 73
     0
 74
     0
 75
     0
 76
     0
 77
     1
 78
     0
170
     0
171
     2
172
     1
173
     0
174
     0
175
     1
176
   256
177
   256
178
   256
  0
ENDTAB
  0
ENDSEC
  0
SECTION
  2
BLOCKS
  0
BLOCK
  8
0
  2
$MODEL_SPACE
 70
     0
 10
0.0
 20
0.0
 30
0.0
  3
$MODEL_SPACE
  1

  0
ENDBLK
  5
38DD
  8
0
  0
BLOCK
 67
     1
  8
0
  2
$PAPER_SPACE
 70
     0
 10
0.0
 20
0.0
 30
0.0
  3
$PAPER_SPACE
  1

  0
ENDBLK
  5
1B3A7
 67
     1
  8
0
  0
BLOCK
  8
0
  2
_OPEN30
 70
     0
 10
0.0
 20
0.0
 30
0.0
  3
_OPEN30
  1

  0
LINE
  5
1B4E1
  8
0
  6
BYBLOCK
 62
     0
 10
-1.0
 20
0.26794919
 30
0.0
 11
0.0
 21
0.0
 31
0.0
  0
LINE
  5
1B4E2
  8
0
  6
BYBLOCK
 62
     0
 10
0.0
 20
0.0
 30
0.0
 11
-1.0
 21
-0.26794919
 31
0.0
  0
LINE
  5
1B4E3
  8
0
  6
BYBLOCK
 62
     0
 10
0.0
 20
0.0
 30
0.0
 11
-1.0
 21
0.0
 31
0.0
  0
ENDBLK
  5
1B4E5
  8
0
  0
BLOCK
  8
0
  2
OPEN_ARROW
 70
     0
 10
0.0
 20
0.0
 30
0.0
  3
OPEN_ARROW
  1

  0
POLYLINE
  5
2F628
  8
0
  6
CONTINUOUS
 62
     0
 66
     1
 10
0.0
 20
0.0
 30
0.0
  0
VERTEX
  5
32387
  8
0
  6
CONTINUOUS
 62
     0
 10
-0.9999999999999998
 20
0.1666666666666666
 30
0.0
  0
VERTEX
  5
32388
  8
0
  6
CONTINUOUS
 62
     0
 10
0.0
 20
0.0
 30
0.0
  0
VERTEX
  5
32389
  8
0
  6
CONTINUOUS
 62
     0
 10
-0.9999999999999998
 20
-0.1666666666666666
 30
0.0
  0
SEQEND
  5
3238A
  8
0
  6
CONTINUOUS
 62
     0
  0
POLYLINE
  5
2F629
  8
0
  6
CONTINUOUS
 62
     0
 66
     1
 10
0.0
 20
0.0
 30
0.0
  0
VERTEX
  5
3238B
  8
0
  6
CONTINUOUS
 62
     0
 10
0.0
 20
0.0
 30
0.0
  0
VERTEX
  5
3238C
  8
0
  6
CONTINUOUS
 62
     0
 10
-0.9999999999999998
 20
0.0
 30
0.0
  0
SEQEND
  5
3238D
  8
0
  6
CONTINUOUS
 62
     0
  0
ENDBLK
  5
2F62B
  8
0
  0
BLOCK
  8
0
  2
_OPEN
 70
     0
 10
0.0
 20
0.0
 30
0.0
  3
_OPEN
  1

  0
LINE
  5
321AD
  8
0
  6
BYBLOCK
 62
     0
 10
-1.0
 20
0.1666666666666666
 30
0.0
 11
0.0
 21
0.0
 31
0.0
  0
LINE
  5
321AE
  8
0
  6
BYBLOCK
 62
     0
 10
-1.0
 20
-0.1666666666666666
 30
0.0
 11
0.0
 21
0.0
 31
0.0
  0
LINE
  5
321AF
  8
0
  6
BYBLOCK
 62
     0
 10
0.0
 20
0.0
 30
0.0
 11
-1.0
 21
0.0
 31
0.0
  0
ENDBLK
  5
321B0
  8
0
  0
BLOCK
  8
0
  2
*U53
 70
     1
 10
0.0
 20
0.0
 30
0.0
  3
*U53
  1

  0
TEXT
  5
32391
  8
D-STR-DIM
 10
32301.60719315075
 20
-9825.4280238987503
 30
0.0
 40
35.0
  1
300
 50
90.0
  7
MSゴシック
  0
ENDBLK
  5
32393
  8
0
  0
BLOCK
  8
0
  2
*U54
 70
     1
 10
0.0
 20
0.0
 30
0.0
  3
*U54
  1

  0
TEXT
  5
32395
  8
D-STR-DIM
 10
32225.324921366449
 20
-9826.6716787210826
 30
0.0
 40
35.0
  1
180
 50
90.0
  7
MSゴシック
  0
ENDBLK
  5
32397
  8
0
  0
BLOCK
  8
0
  2
*U55
 70
     1
 10
0.0
 20
0.0
 30
0.0
  3
*U55
  1

  0
TEXT
  5
32399
  8
D-STR-DIM
 10
31893.252505381221
 20
-9889.0575288849541
 30
0.0
 40
35.0
  1
30
 50
90.0
  7
MSゴシック
  0
ENDBLK
  5
3239B
  8
0
  0
BLOCK
  8
0
  2
*U56
 70
     1
 10
0.0
 20
0.0
 30
0.0
  3
*U56
  1

  0
TEXT
  5
3239D
  8
D-STR-DIM
 10
31533.461587956619
 20
-9897.4051812591551
 30
0.0
 40
35.0
  1
158
 50
90.0
  7
MSゴシック
  0
ENDBLK
  5
3239F
  8
0
  0
BLOCK
  8
0
  2
*U57
 70
     1
 10
0.0
 20
0.0
 30
0.0
  3
*U57
  1

  0
TEXT
  5
323A1
  8
D-STR-DIM
 10
31837.90508824457
 20
-9826.6717420829245
 30
0.0
 40
35.0
  1
120
 50
90.0
  7
MSゴシック
  0
ENDBLK
  5
323A3
  8
0
  0
BLOCK
  8
0
  2
*U58
 70
     1
 10
0.0
 20
0.0
 30
0.0
  3
*U58
  1

  0
TEXT
  5
323A5
  8
D-STR-DIM
 10
32225.324921366449
 20
-9934.3239629850432
 30
0.0
 40
35.0
  1
60
 50
90.0
  7
MSゴシック
  0
ENDBLK
  5
323A7
  8
0
  0
BLOCK
  8
0
  2
*U59
 70
     1
 10
0.0
 20
0.0
 30
0.0
  3
*U59
  1

  0
TEXT
  5
323A9
  8
D-STR-DIM
 10
31793.28526543828
 20
-10170.259864742749
 30
0.0
 40
35.0
  1
300
  7
MSゴシック
  0
ENDBLK
  5
323AB
  8
0
  0
BLOCK
  8
0
  2
*U60
 70
     1
 10
0.0
 20
0.0
 30
0.0
  3
*U60
  1

  0
TEXT
  5
323AD
  8
D-STR-DIM
 10
31684.389326351979
 20
-10110.15385639759
 30
0.0
 40
35.0
  1
60
  7
MSゴシック
  0
ENDBLK
  5
323AF
  8
0
  0
BLOCK
  8
0
  2
*U61
 70
     1
 10
0.0
 20
0.0
 30
0.0
  3
*U61
  1

  0
TEXT
  5
323B1
  8
D-STR-DIM
 10
31792.04161061595
 20
-10110.15385639759
 30
0.0
 40
35.0
  1
180
  7
MSゴシック
  0
ENDBLK
  5
323B3
  8
0
  0
BLOCK
  8
0
  2
*U62
 70
     1
 10
0.0
 20
0.0
 30
0.0
  3
*U62
  1

  0
TEXT
  5
323B5
  8
D-STR-DIM
 10
31924.389326351979
 20
-10110.15385639759
 30
0.0
 40
35.0
  1
60
  7
MSゴシック
  0
ENDBLK
  5
323B7
  8
0
  0
BLOCK
  8
0
  2
*U63
 70
     1
 10
0.0
 20
0.0
 30
0.0
  3
*U63
  1

  0
TEXT
  5
323B9
  8
D-STR-DIM
 10
34168.758317376392
 20
-10200.25986474204
 30
0.0
 40
35.0
  1
600
  7
MSゴシック
  0
ENDBLK
  5
323BB
  8
0
  0
BLOCK
  8
0
  2
*U64
 70
     1
 10
0.0
 20
0.0
 30
0.0
  3
*U64
  1

  0
TEXT
  5
323BD
  8
D-STR-DIM
 10
32225.324921366449
 20
-9694.323962985045
 30
0.0
 40
35.0
  1
60
 50
90.0
  7
MSゴシック
  0
ENDBLK
  5
323BF
  8
0
  0
BLOCK
  8
0
  2
*U65
 70
     1
 10
0.0
 20
0.0
 30
0.0
  3
*U65
  1

  0
TEXT
  5
323C1
  8
D-STR-DIM
 10
31533.461587956619
 20
-9747.3163487718466
 30
0.0
 40
35.0
  1
142
 50
90.0
  7
MSゴシック
  0
ENDBLK
  5
323C3
  8
0
  0
BLOCK
  8
0
  2
*U66
 70
     1
 10
0.0
 20
0.0
 30
0.0
  3
*U66
  1

  0
TEXT
  5
323C5
  8
D-STR-DIM
 10
31892.315591246501
 20
-9739.0574655231158
 30
0.0
 40
35.0
  1
30
 50
90.0
  7
MSゴシック
  0
ENDBLK
  5
323C7
  8
0
  0
BLOCK
  8
0
  2
*U67
 70
     1
 10
0.0
 20
0.0
 30
0.0
  3
*U67
  1

  0
TEXT
  5
323C9
  8
D-STR-DIM
 10
34468.758317376392
 20
-9466.1326895663151
 30
0.0
 40
35.0
  1
600
  7
MSゴシック
  0
ENDBLK
  5
323CB
  8
0
  0
BLOCK
  8
0
  2
*U68
 70
     1
 10
0.0
 20
0.0
 30
0.0
  3
*U68
  1

  0
TEXT
  5
323CD
  8
D-STR-DIM
 10
33868.758317376392
 20
-9466.1326895663151
 30
0.0
 40
35.0
  1
600
  7
MSゴシック
  0
ENDBLK
  5
323CF
  8
0
  0
BLOCK
  8
0
  2
*U69
 70
     1
 10
0.0
 20
0.0
 30
0.0
  3
*U69
  1

  0
TEXT
  5
323D1
  8
D-STR-DIM
 10
32341.60719315075
 20
-11261.089161749031
 30
0.0
 40
35.0
  1
380
 50
90.0
  7
MSゴシック
  0
ENDBLK
  5
323D3
  8
0
  0
BLOCK
  8
0
  2
*U70
 70
     1
 10
0.0
 20
0.0
 30
0.0
  3
*U70
  1

  0
TEXT
  5
323D5
  8
D-STR-DIM
 10
32265.324921366449
 20
-11261.17799423635
 30
0.0
 40
35.0
  1
240
 50
90.0
  7
MSゴシック
  0
ENDBLK
  5
323D7
  8
0
  0
BLOCK
  8
0
  2
*U71
 70
     1
 10
0.0
 20
0.0
 30
0.0
  3
*U71
  1

  0
TEXT
  5
323D9
  8
D-STR-DIM
 10
31493.461587956612
 20
-11162.977486622131
 30
0.0
 40
35.0
  1
182
 50
90.0
  7
MSゴシック
  0
ENDBLK
  5
323DB
  8
0
  0
BLOCK
  8
0
  2
*U72
 70
     1
 10
0.0
 20
0.0
 30
0.0
  3
*U72
  1

  0
TEXT
  5
323DD
  8
D-STR-DIM
 10
31924.325414944102
 20
-11149.45210591147
 30
0.0
 40
35.0
  1
40
 50
90.0
  7
MSゴシック
  0
ENDBLK
  5
323DF
  8
0
  0
BLOCK
  8
0
  2
*U73
 70
     1
 10
0.0
 20
0.0
 30
0.0
  3
*U73
  1

  0
TEXT
  5
323E1
  8
D-STR-DIM
 10
31862.788939386872
 20
-11262.33287993321
 30
0.0
 40
35.0
  1
160
 50
90.0
  7
MSゴシック
  0
ENDBLK
  5
323E3
  8
0
  0
BLOCK
  8
0
  2
*U74
 70
     1
 10
0.0
 20
0.0
 30
0.0
  3
*U74
  1

  0
TEXT
  5
323E5
  8
D-STR-DIM
 10
31920.247609201331
 20
-11349.452169273311
 30
0.0
 40
35.0
  1
40
 50
90.0
  7
MSゴシック
  0
ENDBLK
  5
323E7
  8
0
  0
BLOCK
  8
0
  2
*U75
 70
     1
 10
0.0
 20
0.0
 30
0.0
  3
*U75
  1

  0
TEXT
  5
323E9
  8
D-STR-DIM
 10
31793.28526543828
 20
-11645.921002593041
 30
0.0
 40
35.0
  1
380
  7
MSゴシック
  0
ENDBLK
  5
323EB
  8
0
  0
BLOCK
  8
0
  2
*U76
 70
     1
 10
0.0
 20
0.0
 30
0.0
  3
*U76
  1

  0
TEXT
  5
323ED
  8
D-STR-DIM
 10
31793.196432950968
 20
-11585.814994247879
 30
0.0
 40
35.0
  1
240
  7
MSゴシック
  0
ENDBLK
  5
323EF
  8
0
  0
BLOCK
  8
0
  2
*U77
 70
     1
 10
0.0
 20
0.0
 30
0.0
  3
*U77
  1

  0
TEXT
  5
323F1
  8
D-STR-DIM
 10
31649.211661377361
 20
-11585.814994247879
 30
0.0
 40
35.0
  1
70
  7
MSゴシック
  0
ENDBLK
  5
323F3
  8
0
  0
BLOCK
  8
0
  2
*U78
 70
     1
 10
0.0
 20
0.0
 30
0.0
  3
*U78
  1

  0
TEXT
  5
323F5
  8
D-STR-DIM
 10
31493.461587956612
 20
-11353.066319109441
 30
0.0
 40
35.0
  1
198
 50
90.0
  7
MSゴシック
  0
ENDBLK
  5
323F7
  8
0
  0
BLOCK
  8
0
  2
*U79
 70
     1
 10
0.0
 20
0.0
 30
0.0
  3
*U79
  1

  0
TEXT
  5
323F9
  8
D-STR-DIM
 10
31959.211661377361
 20
-11585.814994247879
 30
0.0
 40
35.0
  1
70
  7
MSゴシック
  0
ENDBLK
  5
323FB
  8
0
  0
BLOCK
  8
0
  2
*U80
 70
     1
 10
0.0
 20
0.0
 30
0.0
  3
*U80
  1

  0
TEXT
  5
323FD
  8
D-STR-DIM
 10
32265.324921366449
 20
-11405.16276580995
 30
0.0
 40
35.0
  1
70
 50
90.0
  7
MSゴシック
  0
ENDBLK
  5
323FF
  8
0
  0
BLOCK
  8
0
  2
*U81
 70
     1
 10
0.0
 20
0.0
 30
0.0
  3
*U81
  1

  0
TEXT
  5
32401
  8
D-STR-DIM
 10
32265.324921366449
 20
-11095.16276580995
 30
0.0
 40
35.0
  1
70
 50
90.0
  7
MSゴシック
  0
ENDBLK
  5
32403
  8
0
  0
BLOCK
  8
0
  2
*U82
 70
     1
 10
0.0
 20
0.0
 30
0.0
  3
*U82
  1

  0
TEXT
  5
32405
  8
D-STR-DIM
 10
34468.758317376392
 20
-10831.793827417299
 30
0.0
 40
35.0
  1
600
  7
MSゴシック
  0
ENDBLK
  5
32407
  8
0
  0
BLOCK
  8
0
  2
*U83
 70
     1
 10
0.0
 20
0.0
 30
0.0
  3
*U83
  1

  0
TEXT
  5
32409
  8
D-STR-DIM
 10
34168.758317376392
 20
-11645.921002593041
 30
0.0
 40
35.0
  1
600
  7
MSゴシック
  0
ENDBLK
  5
3240B
  8
0
  0
BLOCK
  8
0
  2
*U84
 70
     1
 10
0.0
 20
0.0
 30
0.0
  3
*U84
  1

  0
TEXT
  5
3240D
  8
D-STR-DIM
 10
33868.758317376392
 20
-10831.793827417299
 30
0.0
 40
35.0
  1
600
  7
MSゴシック
  0
ENDBLK
  5
3240F
  8
0
  0
BLOCK
  8
0
  2
*U85
 70
     1
 10
0.0
 20
0.0
 30
0.0
  3
*U85
  1

  0
TEXT
  5
32411
  8
D-STR-DIM
 10
32295.324921366449
 20
-12504.82572913187
 30
0.0
 40
35.0
  1
70
 50
90.0
  7
MSゴシック
  0
ENDBLK
  5
32413
  8
0
  0
BLOCK
  8
0
  2
*U86
 70
     1
 10
0.0
 20
0.0
 30
0.0
  3
*U86
  1

  0
TEXT
  5
32415
  8
D-STR-DIM
 10
32371.607193150739
 20
-12700.48562760903
 30
0.0
 40
35.0
  1
440
 50
90.0
  7
MSゴシック
  0
ENDBLK
  5
32417
  8
0
  0
BLOCK
  8
0
  2
*U87
 70
     1
 10
0.0
 20
0.0
 30
0.0
  3
*U87
  1

  0
TEXT
  5
32419
  8
D-STR-DIM
 10
31945.872178440201
 20
-12564.381566695331
 30
0.0
 40
35.0
  1
50
 50
90.0
  7
MSゴシック
  0
ENDBLK
  5
3241B
  8
0
  0
BLOCK
  8
0
  2
*U88
 70
     1
 10
0.0
 20
0.0
 30
0.0
  3
*U88
  1

  0
TEXT
  5
3241D
  8
D-STR-DIM
 10
31463.461587956612
 20
-12586.48562760903
 30
0.0
 40
35.0
  1
212
 50
90.0
  7
MSゴシック
  0
ENDBLK
  5
3241F
  8
0
  0
BLOCK
  8
0
  2
*U89
 70
     1
 10
0.0
 20
0.0
 30
0.0
  3
*U89
  1

  0
TEXT
  5
32421
  8
D-STR-DIM
 10
31884.225189779889
 20
-12700.84102092011
 30
0.0
 40
35.0
  1
200
 50
90.0
  7
MSゴシック
  0
ENDBLK
  5
32423
  8
0
  0
BLOCK
  8
0
  2
*U90
 70
     1
 10
0.0
 20
0.0
 30
0.0
  3
*U90
  1

  0
TEXT
  5
32425
  8
D-STR-DIM
 10
31952.040044613139
 20
-12814.38163005716
 30
0.0
 40
35.0
  1
50
 50
90.0
  7
MSゴシック
  0
ENDBLK
  5
32427
  8
0
  0
BLOCK
  8
0
  2
*U91
 70
     1
 10
0.0
 20
0.0
 30
0.0
  3
*U91
  1

  0
TEXT
  5
32429
  8
D-STR-DIM
 10
31793.28526543827
 20
-13055.477957569799
 30
0.0
 40
35.0
  1
300
  7
MSゴシック
  0
ENDBLK
  5
3242B
  8
0
  0
BLOCK
  8
0
  2
*U92
 70
     1
 10
0.0
 20
0.0
 30
0.0
  3
*U92
  1

  0
TEXT
  5
3242D
  8
D-STR-DIM
 10
31793.55176290021
 20
-13115.58396591495
 30
0.0
 40
35.0
  1
440
  7
MSゴシック
  0
ENDBLK
  5
3242F
  8
0
  0
BLOCK
  8
0
  2
*U93
 70
     1
 10
0.0
 20
0.0
 30
0.0
  3
*U93
  1

  0
TEXT
  5
32431
  8
D-STR-DIM
 10
31463.461587956619
 20
-12806.574460096341
 30
0.0
 40
35.0
  1
228
 50
90.0
  7
MSゴシック
  0
ENDBLK
  5
32433
  8
0
  0
BLOCK
  8
0
  2
*U94
 70
     1
 10
0.0
 20
0.0
 30
0.0
  3
*U94
  1

  0
TEXT
  5
32435
  8
D-STR-DIM
 10
31619.211661377351
 20
-13055.47795756981
 30
0.0
 40
35.0
  1
70
  7
MSゴシック
  0
ENDBLK
  5
32437
  8
0
  0
BLOCK
  8
0
  2
*U95
 70
     1
 10
0.0
 20
0.0
 30
0.0
  3
*U95
  1

  0
TEXT
  5
32439
  8
D-STR-DIM
 10
32295.324921366449
 20
-12700.75212507096
 30
0.0
 40
35.0
  1
300
 50
90.0
  7
MSゴシック
  0
ENDBLK
  5
3243B
  8
0
  0
BLOCK
  8
0
  2
*U96
 70
     1
 10
0.0
 20
0.0
 30
0.0
  3
*U96
  1

  0
TEXT
  5
3243D
  8
D-STR-DIM
 10
32295.324921366449
 20
-12874.82572913187
 30
0.0
 40
35.0
  1
70
 50
90.0
  7
MSゴシック
  0
ENDBLK
  5
3243F
  8
0
  0
BLOCK
  8
0
  2
*U97
 70
     1
 10
0.0
 20
0.0
 30
0.0
  3
*U97
  1

  0
TEXT
  5
32441
  8
D-STR-DIM
 10
31989.211661377351
 20
-13055.477957569799
 30
0.0
 40
35.0
  1
70
  7
MSゴシック
  0
ENDBLK
  5
32443
  8
0
  0
BLOCK
  8
0
  2
*U98
 70
     1
 10
0.0
 20
0.0
 30
0.0
  3
*U98
  1

  0
TEXT
  5
32445
  8
D-STR-DIM
 10
34468.758317376392
 20
-12241.45679073923
 30
0.0
 40
35.0
  1
600
  7
MSゴシック
  0
ENDBLK
  5
32447
  8
0
  0
BLOCK
  8
0
  2
*U99
 70
     1
 10
0.0
 20
0.0
 30
0.0
  3
*U99
  1

  0
TEXT
  5
32449
  8
D-STR-DIM
 10
34168.758317376392
 20
-13115.58396591495
 30
0.0
 40
35.0
  1
600
  7
MSゴシック
  0
ENDBLK
  5
3244B
  8
0
  0
BLOCK
  8
0
  2
*U100
 70
     1
 10
0.0
 20
0.0
 30
0.0
  3
*U100
  1

  0
TEXT
  5
3244D
  8
D-STR-DIM
 10
33868.758317376392
 20
-12241.45679073923
 30
0.0
 40
35.0
  1
600
  7
MSゴシック
  0
ENDBLK
  5
3244F
  8
0
  0
BLOCK
  8
0
  2
*U101
 70
     1
 10
0.0
 20
0.0
 30
0.0
  3
*U101
  1

  0
TEXT
  5
32457
  8
D-STR
 10
36368.848459685578
 20
-11318.35637738122
 30
0.0
 40
35.0
  1
176°
 50
87.994576465280815
  0
ENDBLK
  5
32459
  8
0
  0
BLOCK
  8
0
  2
*U102
 70
     1
 10
0.0
 20
0.0
 30
0.0
  3
*U102
  1

  0
SOLID
  5
3245B
  8
D-STR-STRC_標識_
  6
CONTINUOUS
 62
     1
 10
36388.955711328199
 20
-11265.54578969571
 30
0.0
 11
36388.437596466261
 21
-11265.58757238113
 31
0.0
 12
36389.398597571882
 22
-11265.58757238113
 32
0.0
 13
36389.398597571882
 23
-11265.58757238113
 33
0.0
210
0.0
220
0.0
230
1.0
  0
SOLID
  5
3245C
  8
D-STR-STRC_標識_
  6
CONTINUOUS
 62
     1
 10
36388.437596466261
 20
-11265.58757238113
 30
0.0
 11
36388.41059334387
 21
-11265.59461148477
 31
0.0
 12
36389.473210348369
 22
-11265.59461148477
 32
0.0
 13
36389.473210348369
 23
-11265.59461148477
 33
0.0
210
0.0
220
0.0
230
1.0
  0
SOLID
  5
3245D
  8
D-STR-STRC_標識_
  6
CONTINUOUS
 62
     1
 10
-36388.437596466261
 20
-11265.58757238113
 30
0.0
 11
-36389.398597571882
 21
-11265.58757238113
 31
0.0
 12
-36389.473210348369
 22
-11265.59461148477
 32
0.0
 13
-36389.473210348369
 23
-11265.59461148477
 33
0.0
210
0.0
220
0.0
230
-1.0
  0
SOLID
  5
3245E
  8
D-STR-STRC_標識_
  6
CONTINUOUS
 62
     1
 10
36388.41059334387
 20
-11265.59461148477
 30
0.0
 11
36387.934608420452
 21
-11265.71868999527
 31
0.0
 12
36389.923999181781
 22
-11265.71868999527
 32
0.0
 13
36389.923999181781
 23
-11265.71868999527
 33
0.0
210
0.0
220
0.0
230
1.0
  0
SOLID
  5
3245F
  8
D-STR-STRC_標識_
  6
CONTINUOUS
 62
     1
 10
-36388.41059334387
 20
-11265.59461148477
 30
0.0
 11
-36389.473210348369
 21
-11265.59461148477
 31
0.0
 12
-36389.923999181781
 22
-11265.71868999527
 32
0.0
 13
-36389.923999181781
 23
-11265.71868999527
 33
0.0
210
0.0
220
0.0
230
-1.0
  0
SOLID
  5
32460
  8
D-STR-STRC_標識_
  6
CONTINUOUS
 62
     1
 10
36387.934608420452
 20
-11265.71868999527
 30
0.0
 11
36387.90434084864
 21
-11265.73255432294
 31
0.0
 12
36389.974369580908
 22
-11265.73255432294
 32
0.0
 13
36389.974369580908
 23
-11265.73255432294
 33
0.0
210
0.0
220
0.0
230
1.0
  0
SOLID
  5
32461
  8
D-STR-STRC_標識_
  6
CONTINUOUS
 62
     1
 10
-36387.934608420452
 20
-11265.71868999527
 30
0.0
 11
-36389.923999181781
 21
-11265.71868999527
 31
0.0
 12
-36389.974369580908
 22
-11265.73255432294
 32
0.0
 13
-36389.974369580908
 23
-11265.73255432294
 33
0.0
210
0.0
220
0.0
230
-1.0
  0
SOLID
  5
32462
  8
D-STR-STRC_標識_
  6
CONTINUOUS
 62
     1
 10
36387.90434084864
 20
-11265.73255432294
 30
0.0
 11
36387.462030228031
 21
-11265.935158595779
 31
0.0
 12
36390.401256313751
 22
-11265.935158595779
 32
0.0
 13
36390.401256313751
 23
-11265.935158595779
 33
0.0
210
0.0
220
0.0
230
1.0
  0
SOLID
  5
32463
  8
D-STR-STRC_標識_
  6
CONTINUOUS
 62
     1
 10
-36387.90434084864
 20
-11265.73255432294
 30
0.0
 11
-36389.974369580908
 21
-11265.73255432294
 31
0.0
 12
-36390.401256313751
 22
-11265.935158595779
 32
0.0
 13
-36390.401256313751
 23
-11265.935158595779
 33
0.0
210
0.0
220
0.0
230
-1.0
  0
SOLID
  5
32464
  8
D-STR-STRC_標識_
  6
CONTINUOUS
 62
     1
 10
36387.462030228031
 20
-11265.935158595779
 30
0.0
 11
36387.432661254512
 21
-11265.9554268869
 31
0.0
 12
36390.443961556142
 22
-11265.9554268869
 32
0.0
 13
36390.443961556142
 23
-11265.9554268869
 33
0.0
210
0.0
220
0.0
230
1.0
  0
SOLID
  5
32465
  8
D-STR-STRC_標識_
  6
CONTINUOUS
 62
     1
 10
-36387.462030228031
 20
-11265.935158595779
 30
0.0
 11
-36390.401256313751
 21
-11265.935158595779
 31
0.0
 12
-36390.443961556142
 22
-11265.9554268869
 32
0.0
 13
-36390.443961556142
 23
-11265.9554268869
 33
0.0
210
0.0
220
0.0
230
-1.0
  0
SOLID
  5
32466
  8
D-STR-STRC_標識_
  6
CONTINUOUS
 62
     1
 10
36387.432661254512
 20
-11265.9554268869
 30
0.0
 11
36387.034220938222
 21
-11266.230400893761
 31
0.0
 12
36390.831038703669
 22
-11266.230400893761
 32
0.0
 13
36390.831038703669
 23
-11266.230400893761
 33
0.0
210
0.0
220
0.0
230
1.0
  0
SOLID
  5
32467
  8
D-STR-STRC_標識_
  6
CONTINUOUS
 62
     1
 10
-36387.432661254512
 20
-11265.9554268869
 30
0.0
 11
-36390.443961556142
 21
-11265.9554268869
 31
0.0
 12
-36390.831038703669
 22
-11266.230400893761
 32
0.0
 13
-36390.831038703669
 23
-11266.230400893761
 33
0.0
210
0.0
220
0.0
230
-1.0
  0
SOLID
  5
32468
  8
D-STR-STRC_標識_
  6
CONTINUOUS
 62
     1
 10
36387.034220938222
 20
-11266.230400893761
 30
0.0
 11
36387.007807888651
 21
-11266.25645730657
 31
0.0
 12
36390.867717959503
 22
-11266.25645730657
 32
0.0
 13
36390.867717959503
 23
-11266.25645730657
 33
0.0
210
0.0
220
0.0
230
1.0
  0
SOLID
  5
32469
  8
D-STR-STRC_標識_
  6
CONTINUOUS
 62
     1
 10
-36387.034220938222
 20
-11266.230400893761
 30
0.0
 11
-36390.831038703669
 21
-11266.230400893761
 31
0.0
 12
-36390.867717959503
 22
-11266.25645730657
 32
0.0
 13
-36390.867717959503
 23
-11266.25645730657
 33
0.0
210
0.0
220
0.0
230
-1.0
  0
SOLID
  5
3246A
  8
D-STR-STRC_標識_
  6
CONTINUOUS
 62
     1
 10
36387.007807888651
 20
-11266.25645730657
 30
0.0
 11
36386.963566487873
 21
-11266.30010134694
 31
0.0
 12
36390.910772705211
 22
-11266.30010134694
 32
0.0
 13
36390.910772705211
 23
-11266.30010134694
 33
0.0
210
0.0
220
0.0
230
1.0
  0
SOLID
  5
3246B
  8
D-STR-STRC_標識_
  6
CONTINUOUS
 62
     1
 10
-36387.007807888651
 20
-11266.25645730657
 30
0.0
 11
-36390.867717959503
 21
-11266.25645730657
 31
0.0
 12
-36390.910772705211
 22
-11266.30010134694
 32
0.0
 13
-36390.910772705211
 23
-11266.30010134694
 33
0.0
210
0.0
220
0.0
230
-1.0
  0
SOLID
  5
3246C
  8
D-STR-STRC_標識_
  6
CONTINUOUS
 62
     1
 10
36386.963566487873
 20
-11266.30010134694
 30
0.0
 11
36386.959673162622
 21
-11266.30394210337
 31
0.0
 12
36388.716045222063
 22
-11266.30394210337
 32
0.0
 13
36388.716045222063
 23
-11266.30394210337
 33
0.0
  0
SOLID
  5
3246D
  8
D-STR-STRC_標識_
  6
CONTINUOUS
 62
     1
 10
-36386.963566487873
 20
-11266.30010134694
 30
0.0
 11
-36388.736336209033
 21
-11266.30010134694
 31
0.0
 12
-36388.716045222063
 22
-11266.30394210337
 32
0.0
 13
-36388.716045222063
 23
-11266.30394210337
 33
0.0
210
0.0
220
0.0
230
-1.0
  0
SOLID
  5
3246E
  8
D-STR-STRC_標識_
  6
CONTINUOUS
 62
     1
 10
36388.736336209033
 20
-11266.30010134694
 30
0.0
 11
36389.17364520202
 21
-11266.30394210337
 31
0.0
 12
36390.914561602622
 22
-11266.30394210337
 32
0.0
 13
36390.914561602622
 23
-11266.30394210337
 33
0.0
210
0.0
220
0.0
230
1.0
  0
SOLID
  5
3246F
  8
D-STR-STRC_標識_
  6
CONTINUOUS
 62
     1
 10
-36388.736336209033
 20
-11266.30010134694
 30
0.0
 11
-36390.910772705211
 21
-11266.30010134694
 31
0.0
 12
-36390.914561602622
 22
-11266.30394210337
 32
0.0
 13
-36390.914561602622
 23
-11266.30394210337
 33
0.0
210
0.0
220
0.0
230
-1.0
  0
SOLID
  5
32470
  8
D-STR-STRC_標識_
  6
CONTINUOUS
 62
     1
 10
36386.959673162622
 20
-11266.30394210337
 30
0.0
 11
36386.881118745419
 21
-11266.381435855719
 31
0.0
 12
36388.306640264847
 22
-11266.381435855719
 32
0.0
 13
36388.306640264847
 23
-11266.381435855719
 33
0.0
210
0.0
220
0.0
230
1.0
  0
SOLID
  5
32471
  8
D-STR-STRC_標識_
  6
CONTINUOUS
 62
     1
 10
-36386.959673162622
 20
-11266.30394210337
 30
0.0
 11
-36388.716045222063
 21
-11266.30394210337
 31
0.0
 12
-36388.306640264847
 22
-11266.381435855719
 32
0.0
 13
-36388.306640264847
 23
-11266.381435855719
 33
0.0
210
0.0
220
0.0
230
-1.0
  0
SOLID
  5
32472
  8
D-STR-STRC_標識_
  6
CONTINUOUS
 62
     1
 10
36389.17364520202
 20
-11266.30394210337
 30
0.0
 11
36389.547035782321
 21
-11266.381435855719
 31
0.0
 12
36390.99100901153
 22
-11266.381435855719
 32
0.0
 13
36390.99100901153
 23
-11266.381435855719
 33
0.0
210
0.0
220
0.0
230
1.0
  0
SOLID
  5
32473
  8
D-STR-STRC_標識_
  6
CONTINUOUS
 62
     1
 10
-36389.17364520202
 20
-11266.30394210337
 30
0.0
 11
-36390.914561602622
 21
-11266.30394210337
 31
0.0
 12
-36390.99100901153
 22
-11266.381435855719
 32
0.0
 13
-36390.99100901153
 23
-11266.381435855719
 33
0.0
210
0.0
220
0.0
230
-1.0
  0
SOLID
  5
32474
  8
D-STR-STRC_標識_
  6
CONTINUOUS
 62
     1
 10
36386.881118745419
 20
-11266.381435855719
 30
0.0
 11
36386.869587634857
 21
-11266.39281126984
 31
0.0
 12
36388.278399903364
 22
-11266.39281126984
 32
0.0
 13
36388.278399903364
 23
-11266.39281126984
 33
0.0
210
0.0
220
0.0
230
1.0
  0
SOLID
  5
32475
  8
D-STR-STRC_標識_
  6
CONTINUOUS
 62
     1
 10
-36386.881118745419
 20
-11266.381435855719
 30
0.0
 11
-36388.306640264847
 21
-11266.381435855719
 31
0.0
 12
-36388.278399903364
 22
-11266.39281126984
 32
0.0
 13
-36388.278399903364
 23
-11266.39281126984
 33
0.0
210
0.0
220
0.0
230
-1.0
  0
SOLID
  5
32476
  8
D-STR-STRC_標識_
  6
CONTINUOUS
 62
     1
 10
36389.547035782321
 20
-11266.381435855719
 30
0.0
 11
36389.601846297322
 21
-11266.39281126984
 31
0.0
 12
36391.002230831458
 22
-11266.39281126984
 32
0.0
 13
36391.002230831458
 23
-11266.39281126984
 33
0.0
  0
SOLID
  5
32477
  8
D-STR-STRC_標識_
  6
CONTINUOUS
 62
     1
 10
-36389.547035782321
 20
-11266.381435855719
 30
0.0
 11
-36390.99100901153
 21
-11266.381435855719
 31
0.0
 12
-36391.002230831458
 22
-11266.39281126984
 32
0.0
 13
-36391.002230831458
 23
-11266.39281126984
 33
0.0
210
0.0
220
0.0
230
-1.0
  0
SOLID
  5
32478
  8
D-STR-STRC_標識_
  6
CONTINUOUS
 62
     1
 10
36386.869587634857
 20
-11266.39281126984
 30
0.0
 11
36386.715482407133
 21
-11266.54483572346
 31
0.0
 12
36387.90098722346
 22
-11266.54483572346
 32
0.0
 13
36387.90098722346
 23
-11266.54483572346
 33
0.0
  0
SOLID
  5
32479
  8
D-STR-STRC_標識_
  6
CONTINUOUS
 62
     1
 10
-36386.869587634857
 20
-11266.39281126984
 30
0.0
 11
-36388.278399903364
 21
-11266.39281126984
 31
0.0
 12
-36387.90098722346
 22
-11266.54483572346
 32
0.0
 13
-36387.90098722346
 23
-11266.54483572346
 33
0.0
210
0.0
220
0.0
230
-1.0
  0
SOLID
  5
3247A
  8
D-STR-STRC_標識_
  6
CONTINUOUS
 62
     1
 10
36389.601846297322
 20
-11266.39281126984
 30
0.0
 11
36389.960928506422
 21
-11266.54483572346
 31
0.0
 12
36391.152202606187
 22
-11266.54483572346
 32
0.0
 13
36391.152202606187
 23
-11266.54483572346
 33
0.0
  0
SOLID
  5
3247B
  8
D-STR-STRC_標識_
  6
CONTINUOUS
 62
     1
 10
-36389.601846297322
 20
-11266.39281126984
 30
0.0
 11
-36391.002230831458
 21
-11266.39281126984
 31
0.0
 12
-36391.152202606187
 22
-11266.54483572346
 32
0.0
 13
-36391.152202606187
 23
-11266.54483572346
 33
0.0
210
0.0
220
0.0
230
-1.0
  0
SOLID
  5
3247C
  8
D-STR-STRC_標識_
  6
CONTINUOUS
 62
     1
 10
36386.715482407133
 20
-11266.54483572346
 30
0.0
 11
36386.696754414792
 21
-11266.563310844929
 31
0.0
 12
36387.8727128069
 22
-11266.563310844929
 32
0.0
 13
36387.8727128069
 23
-11266.563310844929
 33
0.0
  0
SOLID
  5
3247D
  8
D-STR-STRC_標識_
  6
CONTINUOUS
 62
     1
 10
-36386.715482407133
 20
-11266.54483572346
 30
0.0
 11
-36387.90098722346
 21
-11266.54483572346
 31
0.0
 12
-36387.8727128069
 22
-11266.563310844929
 32
0.0
 13
-36387.8727128069
 23
-11266.563310844929
 33
0.0
210
0.0
220
0.0
230
-1.0
  0
SOLID
  5
3247E
  8
D-STR-STRC_標識_
  6
CONTINUOUS
 62
     1
 10
36389.960928506422
 20
-11266.54483572346
 30
0.0
 11
36390.004566797987
 21
-11266.563310844929
 31
0.0
 12
36391.170428271143
 22
-11266.563310844929
 32
0.0
 13
36391.170428271143
 23
-11266.563310844929
 33
0.0
210
0.0
220
0.0
230
1.0
  0
SOLID
  5
3247F
  8
D-STR-STRC_標識_
  6
CONTINUOUS
 62
     1
 10
-36389.960928506422
 20
-11266.54483572346
 30
0.0
 11
-36391.152202606187
 21
-11266.54483572346
 31
0.0
 12
-36391.170428271143
 22
-11266.563310844929
 32
0.0
 13
-36391.170428271143
 23
-11266.563310844929
 33
0.0
210
0.0
220
0.0
230
-1.0
  0
SOLID
  5
32480
  8
D-STR-STRC_標識_
  6
CONTINUOUS
 62
     1
 10
36386.696754414792
 20
-11266.563310844929
 30
0.0
 11
36386.664179319821
 21
-11266.59544610139
 31
0.0
 12
36387.823532852723
 22
-11266.59544610139
 32
0.0
 13
36387.823532852723
 23
-11266.59544610139
 33
0.0
210
0.0
220
0.0
230
1.0
  0
SOLID
  5
32481
  8
D-STR-STRC_標識_
  6
CONTINUOUS
 62
     1
 10
-36386.696754414792
 20
-11266.563310844929
 30
0.0
 11
-36387.8727128069
 21
-11266.563310844929
 31
0.0
 12
-36387.823532852723
 22
-11266.59544610139
 32
0.0
 13
-36387.823532852723
 23
-11266.59544610139
 33
0.0
210
0.0
220
0.0
230
-1.0
  0
SOLID
  5
32482
  8
D-STR-STRC_標識_
  6
CONTINUOUS
 62
     1
 10
36390.004566797987
 20
-11266.563310844929
 30
0.0
 11
36390.051909466623
 21
-11266.59544610139
 31
0.0
 12
36391.202129627913
 22
-11266.59544610139
 32
0.0
 13
36391.202129627913
 23
-11266.59544610139
 33
0.0
210
0.0
220
0.0
230
1.0
  0
SOLID
  5
32483
  8
D-STR-STRC_標識_
  6
CONTINUOUS
 62
     1
 10
-36390.004566797987
 20
-11266.563310844929
 30
0.0
 11
-36391.170428271143
 21
-11266.563310844929
 31
0.0
 12
-36391.202129627913
 22
-11266.59544610139
 32
0.0
 13
-36391.202129627913
 23
-11266.59544610139
 33
0.0
210
0.0
220
0.0
230
-1.0
  0
SOLID
  5
32484
  8
D-STR-STRC_標識_
  6
CONTINUOUS
 62
     1
 10
36386.664179319821
 20
-11266.59544610139
 30
0.0
 11
36386.642119843113
 21
-11266.626498924959
 31
0.0
 12
36387.776009459143
 22
-11266.626498924959
 32
0.0
 13
36387.776009459143
 23
-11266.626498924959
 33
0.0
210
0.0
220
0.0
230
1.0
  0
SOLID
  5
32485
  8
D-STR-STRC_標識_
  6
CONTINUOUS
 62
     1
 10
-36386.664179319821
 20
-11266.59544610139
 30
0.0
 11
-36387.823532852723
 21
-11266.59544610139
 31
0.0
 12
-36387.776009459143
 22
-11266.626498924959
 32
0.0
 13
-36387.776009459143
 23
-11266.626498924959
 33
0.0
210
0.0
220
0.0
230
-1.0
  0
SOLID
  5
32486
  8
D-STR-STRC_標識_
  6
CONTINUOUS
 62
     1
 10
36390.051909466623
 20
-11266.59544610139
 30
0.0
 11
36390.097657461163
 21
-11266.626498924959
 31
0.0
 12
36391.232763167143
 22
-11266.626498924959
 32
0.0
 13
36391.232763167143
 23
-11266.626498924959
 33
0.0
210
0.0
220
0.0
230
1.0
  0
SOLID
  5
32487
  8
D-STR-STRC_標識_
  6
CONTINUOUS
 62
     1
 10
-36390.051909466623
 20
-11266.59544610139
 30
0.0
 11
-36391.202129627913
 21
-11266.59544610139
 31
0.0
 12
-36391.232763167143
 22
-11266.626498924959
 32
0.0
 13
-36391.232763167143
 23
-11266.626498924959
 33
0.0
210
0.0
220
0.0
230
-1.0
  0
SOLID
  5
32488
  8
D-STR-STRC_標識_
  6
CONTINUOUS
 62
     1
 10
36386.642119843113
 20
-11266.626498924959
 30
0.0
 11
36386.530195570092
 21
-11266.78405319286
 31
0.0
 12
36387.534887634421
 22
-11266.78405319286
 32
0.0
 13
36387.534887634421
 23
-11266.78405319286
 33
0.0
210
0.0
220
0.0
230
1.0
  0
SOLID
  5
32489
  8
D-STR-STRC_標識_
  6
CONTINUOUS
 62
     1
 10
-36386.642119843113
 20
-11266.626498924959
 30
0.0
 11
-36387.776009459143
 21
-11266.626498924959
 31
0.0
 12
-36387.534887634421
 22
-11266.78405319286
 32
0.0
 13
-36387.534887634421
 23
-11266.78405319286
 33
0.0
210
0.0
220
0.0
230
-1.0
  0
SOLID
  5
3248A
  8
D-STR-STRC_標識_
  6
CONTINUOUS
 62
     1
 10
36390.097657461163
 20
-11266.626498924959
 30
0.0
 11
36390.329771354758
 21
-11266.78405319286
 31
0.0
 12
36391.341495457949
 22
-11266.78405319286
 32
0.0
 13
36391.341495457949
 23
-11266.78405319286
 33
0.0
210
0.0
220
0.0
230
1.0
  0
SOLID
  5
3248B
  8
D-STR-STRC_標識_
  6
CONTINUOUS
 62
     1
 10
-36390.097657461163
 20
-11266.626498924959
 30
0.0
 11
-36391.232763167143
 21
-11266.626498924959
 31
0.0
 12
-36391.341495457949
 22
-11266.78405319286
 32
0.0
 13
-36391.341495457949
 23
-11266.78405319286
 33
0.0
210
0.0
220
0.0
230
-1.0
  0
SOLID
  5
3248C
  8
D-STR-STRC_標識_
  6
CONTINUOUS
 62
     1
 10
36386.530195570092
 20
-11266.78405319286
 30
0.0
 11
36386.512529408406
 21
-11266.80892160696
 31
0.0
 12
36387.559420268059
 22
-11266.80892160696
 32
0.0
 13
36387.559420268059
 23
-11266.80892160696
 33
0.0
  0
SOLID
  5
3248D
  8
D-STR-STRC_標識_
  6
CONTINUOUS
 62
     1
 10
-36386.530195570092
 20
-11266.78405319286
 30
0.0
 11
-36387.534887634421
 21
-11266.78405319286
 31
0.0
 12
-36387.559420268059
 22
-11266.80892160696
 32
0.0
 13
-36387.559420268059
 23
-11266.80892160696
 33
0.0
210
0.0
220
0.0
230
-1.0
  0
SOLID
  5
3248E
  8
D-STR-STRC_標識_
  6
CONTINUOUS
 62
     1
 10
36390.329771354758
 20
-11266.78405319286
 30
0.0
 11
36390.366408283087
 21
-11266.80892160696
 31
0.0
 12
36391.358657796161
 22
-11266.80892160696
 32
0.0
 13
36391.358657796161
 23
-11266.80892160696
 33
0.0
210
0.0
220
0.0
230
1.0
  0
SOLID
  5
3248F
  8
D-STR-STRC_標識_
  6
CONTINUOUS
 62
     1
 10
-36390.329771354758
 20
-11266.78405319286
 30
0.0
 11
-36391.341495457949
 21
-11266.78405319286
 31
0.0
 12
-36391.358657796161
 22
-11266.80892160696
 32
0.0
 13
-36391.358657796161
 23
-11266.80892160696
 33
0.0
210
0.0
220
0.0
230
-1.0
  0
SOLID
  5
32490
  8
D-STR-STRC_標識_
  6
CONTINUOUS
 62
     1
 10
36386.512529408406
 20
-11266.80892160696
 30
0.0
 11
36386.363148900156
 21
-11267.01920250476
 31
0.0
 12
36387.76686189296
 22
-11267.01920250476
 32
0.0
 13
36387.76686189296
 23
-11267.01920250476
 33
0.0
210
0.0
220
0.0
230
1.0
  0
SOLID
  5
32491
  8
D-STR-STRC_標識_
  6
CONTINUOUS
 62
     1
 10
-36386.512529408406
 20
-11266.80892160696
 30
0.0
 11
-36387.559420268059
 21
-11266.80892160696
 31
0.0
 12
-36387.76686189296
 22
-11267.01920250476
 32
0.0
 13
-36387.76686189296
 23
-11267.01920250476
 33
0.0
210
0.0
220
0.0
230
-1.0
  0
SOLID
  5
32492
  8
D-STR-STRC_標識_
  6
CONTINUOUS
 62
     1
 10
36390.366408283087
 20
-11266.80892160696
 30
0.0
 11
36390.573849907989
 21
-11267.01920250476
 31
0.0
 12
36391.503778103201
 22
-11267.01920250476
 32
0.0
 13
36391.503778103201
 23
-11267.01920250476
 33
0.0
210
0.0
220
0.0
230
1.0
  0
SOLID
  5
32493
  8
D-STR-STRC_標識_
  6
CONTINUOUS
 62
     1
 10
-36390.366408283087
 20
-11266.80892160696
 30
0.0
 11
-36391.358657796161
 21
-11266.80892160696
 31
0.0
 12
-36391.503778103201
 22
-11267.01920250476
 32
0.0
 13
-36391.503778103201
 23
-11267.01920250476
 33
0.0
210
0.0
220
0.0
230
-1.0
  0
SOLID
  5
32494
  8
D-STR-STRC_標識_
  6
CONTINUOUS
 62
     1
 10
36386.363148900156
 20
-11267.01920250476
 30
0.0
 11
36386.346487415263
 21
-11267.054308214771
 31
0.0
 12
36387.801493595623
 22
-11267.054308214771
 32
0.0
 13
36387.801493595623
 23
-11267.054308214771
 33
0.0
210
0.0
220
0.0
230
1.0
  0
SOLID
  5
32495
  8
D-STR-STRC_標識_
  6
CONTINUOUS
 62
     1
 10
-36386.363148900156
 20
-11267.01920250476
 30
0.0
 11
-36387.76686189296
 21
-11267.01920250476
 31
0.0
 12
-36387.801493595623
 22
-11267.054308214771
 32
0.0
 13
-36387.801493595623
 23
-11267.054308214771
 33
0.0
210
0.0
220
0.0
230
-1.0
  0
SOLID
  5
32496
  8
D-STR-STRC_標識_
  6
CONTINUOUS
 62
     1
 10
36390.573849907989
 20
-11267.01920250476
 30
0.0
 11
36390.60848161066
 21
-11267.054308214771
 31
0.0
 12
36391.528005465123
 22
-11267.054308214771
 32
0.0
 13
36391.528005465123
 23
-11267.054308214771
 33
0.0
210
0.0
220
0.0
230
1.0
  0
SOLID
  5
32497
  8
D-STR-STRC_標識_
  6
CONTINUOUS
 62
     1
 10
-36390.573849907989
 20
-11267.01920250476
 30
0.0
 11
-36391.503778103201
 21
-11267.01920250476
 31
0.0
 12
-36391.528005465123
 22
-11267.054308214771
 32
0.0
 13
-36391.528005465123
 23
-11267.054308214771
 33
0.0
210
0.0
220
0.0
230
-1.0
  0
SOLID
  5
32498
  8
D-STR-STRC_標識_
  6
CONTINUOUS
 62
     1
 10
36386.346487415263
 20
-11267.054308214771
 30
0.0
 11
36386.32309660998
 21
-11267.103592587249
 31
0.0
 12
36387.850112516382
 22
-11267.103592587249
 32
0.0
 13
36387.850112516382
 23
-11267.103592587249
 33
0.0
210
0.0
220
0.0
230
1.0
  0
SOLID
  5
32499
  8
D-STR-STRC_標識_
  6
CONTINUOUS
 62
     1
 10
-36386.346487415263
 20
-11267.054308214771
 30
0.0
 11
-36387.801493595623
 21
-11267.054308214771
 31
0.0
 12
-36387.850112516382
 22
-11267.103592587249
 32
0.0
 13
-36387.850112516382
 23
-11267.103592587249
 33
0.0
210
0.0
220
0.0
230
-1.0
  0
SOLID
  5
3249A
  8
D-STR-STRC_標識_
  6
CONTINUOUS
 62
     1
 10
36390.60848161066
 20
-11267.054308214771
 30
0.0
 11
36390.657100531418
 21
-11267.103592587249
 31
0.0
 12
36391.550580605712
 22
-11267.103592587249
 32
0.0
 13
36391.550580605712
 23
-11267.103592587249
 33
0.0
210
0.0
220
0.0
230
1.0
  0
SOLID
  5
3249B
  8
D-STR-STRC_標識_
  6
CONTINUOUS
 62
     1
 10
-36390.60848161066
 20
-11267.054308214771
 30
0.0
 11
-36391.528005465123
 21
-11267.054308214771
 31
0.0
 12
-36391.550580605712
 22
-11267.103592587249
 32
0.0
 13
-36391.550580605712
 23
-11267.103592587249
 33
0.0
210
0.0
220
0.0
230
-1.0
  0
SOLID
  5
3249C
  8
D-STR-STRC_標識_
  6
CONTINUOUS
 62
     1
 10
36386.32309660998
 20
-11267.103592587249
 30
0.0
 11
36386.315189721521
 21
-11267.1202523829
 31
0.0
 12
36387.199762708893
 22
-11267.1202523829
 32
0.0
 13
36387.199762708893
 23
-11267.1202523829
 33
0.0
210
0.0
220
0.0
230
1.0
  0
SOLID
  5
3249D
  8
D-STR-STRC_標識_
  6
CONTINUOUS
 62
     1
 10
-36386.32309660998
 20
-11267.103592587249
 30
0.0
 11
-36387.21097466466
 21
-11267.103592587249
 31
0.0
 12
-36387.199762708893
 22
-11267.1202523829
 32
0.0
 13
-36387.199762708893
 23
-11267.1202523829
 33
0.0
210
0.0
220
0.0
230
-1.0
  0
SOLID
  5
3249E
  8
D-STR-STRC_標識_
  6
CONTINUOUS
 62
     1
 10
36387.21097466466
 20
-11267.103592587249
 30
0.0
 11
36387.227409514933
 21
-11267.1202523829
 31
0.0
 12
36387.866547366692
 22
-11267.1202523829
 32
0.0
 13
36387.866547366692
 23
-11267.1202523829
 33
0.0
210
0.0
220
0.0
230
1.0
  0
SOLID
  5
3249F
  8
D-STR-STRC_標識_
  6
CONTINUOUS
 62
     1
 10
-36387.21097466466
 20
-11267.103592587249
 30
0.0
 11
-36387.850112516382
 21
-11267.103592587249
 31
0.0
 12
-36387.866547366692
 22
-11267.1202523829
 32
0.0
 13
-36387.866547366692
 23
-11267.1202523829
 33
0.0
210
0.0
220
0.0
230
-1.0
  0
SOLID
  5
324A0
  8
D-STR-STRC_標識_
  6
CONTINUOUS
 62
     1
 10
36390.657100531418
 20
-11267.103592587249
 30
0.0
 11
36390.673535381728
 21
-11267.1202523829
 31
0.0
 12
36391.558211771742
 22
-11267.1202523829
 32
0.0
 13
36391.558211771742
 23
-11267.1202523829
 33
0.0
210
0.0
220
0.0
230
1.0
  0
SOLID
  5
324A1
  8
D-STR-STRC_標識_
  6
CONTINUOUS
 62
     1
 10
-36390.657100531418
 20
-11267.103592587249
 30
0.0
 11
-36391.550580605712
 21
-11267.103592587249
 31
0.0
 12
-36391.558211771742
 22
-11267.1202523829
 32
0.0
 13
-36391.558211771742
 23
-11267.1202523829
 33
0.0
210
0.0
220
0.0
230
-1.0
  0
SOLID
  5
324A2
  8
D-STR-STRC_標識_
  6
CONTINUOUS
 62
     1
 10
36386.315189721521
 20
-11267.1202523829
 30
0.0
 11
36386.150901842062
 21
-11267.466406563781
 31
0.0
 12
36386.966802746487
 22
-11267.466406563781
 32
0.0
 13
36386.966802746487
 23
-11267.466406563781
 33
0.0
210
0.0
220
0.0
230
1.0
  0
SOLID
  5
324A3
  8
D-STR-STRC_標識_
  6
CONTINUOUS
 62
     1
 10
-36386.315189721521
 20
-11267.1202523829
 30
0.0
 11
-36387.199762708893
 21
-11267.1202523829
 31
0.0
 12
-36386.966802746487
 22
-11267.466406563781
 32
0.0
 13
-36386.966802746487
 23
-11267.466406563781
 33
0.0
210
0.0
220
0.0
230
-1.0
  0
SOLID
  5
324A4
  8
D-STR-STRC_標識_
  6
CONTINUOUS
 62
     1
 10
36387.227409514933
 20
-11267.1202523829
 30
0.0
 11
36387.568889822069
 21
-11267.466406563781
 31
0.0
 12
36388.208027674693
 22
-11267.466406563781
 32
0.0
 13
36388.208027674693
 23
-11267.466406563781
 33
0.0
210
0.0
220
0.0
230
1.0
  0
SOLID
  5
324A5
  8
D-STR-STRC_標識_
  6
CONTINUOUS
 62
     1
 10
-36387.227409514933
 20
-11267.1202523829
 30
0.0
 11
-36387.866547366692
 21
-11267.1202523829
 31
0.0
 12
-36388.208027674693
 22
-11267.466406563781
 32
0.0
 13
-36388.208027674693
 23
-11267.466406563781
 33
0.0
210
0.0
220
0.0
230
-1.0
  0
SOLID
  5
324A6
  8
D-STR-STRC_標識_
  6
CONTINUOUS
 62
     1
 10
36390.673535381728
 20
-11267.1202523829
 30
0.0
 11
36390.90168672095
 21
-11267.466406563781
 31
0.0
 12
36391.716770741019
 22
-11267.466406563781
 32
0.0
 13
36391.716770741019
 23
-11267.466406563781
 33
0.0
210
0.0
220
0.0
230
1.0
  0
SOLID
  5
324A7
  8
D-STR-STRC_標識_
  6
CONTINUOUS
 62
     1
 10
-36390.673535381728
 20
-11267.1202523829
 30
0.0
 11
-36391.558211771742
 21
-11267.1202523829
 31
0.0
 12
-36391.716770741019
 22
-11267.466406563781
 32
0.0
 13
-36391.716770741019
 23
-11267.466406563781
 33
0.0
210
0.0
220
0.0
230
-1.0
  0
SOLID
  5
324A8
  8
D-STR-STRC_標識_
  6
CONTINUOUS
 62
     1
 10
36386.150901842062
 20
-11267.466406563781
 30
0.0
 11
36386.141887800091
 21
-11267.485399129309
 31
0.0
 12
36386.958850664989
 22
-11267.485399129309
 32
0.0
 13
36386.958850664989
 23
-11267.485399129309
 33
0.0
210
0.0
220
0.0
230
1.0
  0
SOLID
  5
324A9
  8
D-STR-STRC_標識_
  6
CONTINUOUS
 62
     1
 10
-36386.150901842062
 20
-11267.466406563781
 30
0.0
 11
-36386.966802746487
 21
-11267.466406563781
 31
0.0
 12
-36386.958850664989
 22
-11267.485399129309
 32
0.0
 13
-36386.958850664989
 23
-11267.485399129309
 33
0.0
210
0.0
220
0.0
230
-1.0
  0
SOLID
  5
324AA
  8
D-STR-STRC_標識_
  6
CONTINUOUS
 62
     1
 10
36387.568889822069
 20
-11267.466406563781
 30
0.0
 11
36387.587625944492
 21
-11267.485399129309
 31
0.0
 12
36388.22676379716
 22
-11267.485399129309
 32
0.0
 13
36388.22676379716
 23
-11267.485399129309
 33
0.0
210
0.0
220
0.0
230
1.0
  0
SOLID
  5
324AB
  8
D-STR-STRC_標識_
  6
CONTINUOUS
 62
     1
 10
-36387.568889822069
 20
-11267.466406563781
 30
0.0
 11
-36388.208027674693
 21
-11267.466406563781
 31
0.0
 12
-36388.22676379716
 22
-11267.485399129309
 32
0.0
 13
-36388.22676379716
 23
-11267.485399129309
 33
0.0
210
0.0
220
0.0
230
-1.0
  0
SOLID
  5
324AC
  8
D-STR-STRC_標識_
  6
CONTINUOUS
 62
     1
 10
36390.90168672095
 20
-11267.466406563781
 30
0.0
 11
36390.914204782261
 21
-11267.485399129309
 31
0.0
 12
36391.725470452831
 22
-11267.485399129309
 32
0.0
 13
36391.725470452831
 23
-11267.485399129309
 33
0.0
210
0.0
220
0.0
230
1.0
  0
SOLID
  5
324AD
  8
D-STR-STRC_標識_
  6
CONTINUOUS
 62
     1
 10
-36390.90168672095
 20
-11267.466406563781
 30
0.0
 11
-36391.716770741019
 21
-11267.466406563781
 31
0.0
 12
-36391.725470452831
 22
-11267.485399129309
 32
0.0
 13
-36391.725470452831
 23
-11267.485399129309
 33
0.0
210
0.0
220
0.0
230
-1.0
  0
SOLID
  5
324AE
  8
D-STR-STRC_標識_
  6
CONTINUOUS
 62
     1
 10
36386.141887800091
 20
-11267.485399129309
 30
0.0
 11
36386.140276336198
 21
-11267.48879447999
 31
0.0
 12
36386.957429050548
 22
-11267.48879447999
 32
0.0
 13
36386.957429050548
 23
-11267.48879447999
 33
0.0
210
0.0
220
0.0
230
1.0
  0
SOLID
  5
324AF
  8
D-STR-STRC_標識_
  6
CONTINUOUS
 62
     1
 10
-36386.141887800091
 20
-11267.485399129309
 30
0.0
 11
-36386.958850664989
 21
-11267.485399129309
 31
0.0
 12
-36386.957429050548
 22
-11267.48879447999
 32
0.0
 13
-36386.957429050548
 23
-11267.48879447999
 33
0.0
210
0.0
220
0.0
230
-1.0
  0
SOLID
  5
324B0
  8
D-STR-STRC_標識_
  6
CONTINUOUS
 62
     1
 10
36387.587625944492
 20
-11267.485399129309
 30
0.0
 11
36387.590975450163
 21
-11267.48879447999
 31
0.0
 12
36388.230113302838
 22
-11267.48879447999
 32
0.0
 13
36388.230113302838
 23
-11267.48879447999
 33
0.0
210
0.0
220
0.0
230
1.0
  0
SOLID
  5
324B1
  8
D-STR-STRC_標識_
  6
CONTINUOUS
 62
     1
 10
-36387.587625944492
 20
-11267.485399129309
 30
0.0
 11
-36388.22676379716
 21
-11267.485399129309
 31
0.0
 12
-36388.230113302838
 22
-11267.48879447999
 32
0.0
 13
-36388.230113302838
 23
-11267.48879447999
 33
0.0
210
0.0
220
0.0
230
-1.0
  0
SOLID
  5
324B2
  8
D-STR-STRC_標識_
  6
CONTINUOUS
 62
     1
 10
36390.914204782261
 20
-11267.485399129309
 30
0.0
 11
36390.91558814935
 21
-11267.48879447999
 31
0.0
 12
36391.727025723092
 22
-11267.48879447999
 32
0.0
 13
36391.727025723092
 23
-11267.48879447999
 33
0.0
  0
SOLID
  5
324B3
  8
D-STR-STRC_標識_
  6
CONTINUOUS
 62
     1
 10
-36390.914204782261
 20
-11267.485399129309
 30
0.0
 11
-36391.725470452831
 21
-11267.485399129309
 31
0.0
 12
-36391.727025723092
 22
-11267.48879447999
 32
0.0
 13
-36391.727025723092
 23
-11267.48879447999
 33
0.0
210
0.0
220
0.0
230
-1.0
  0
SOLID
  5
324B4
  8
D-STR-STRC_標識_
  6
CONTINUOUS
 62
     1
 10
36386.140276336198
 20
-11267.48879447999
 30
0.0
 11
36386.129791627529
 21
-11267.5268864072
 31
0.0
 12
36386.941480172587
 22
-11267.5268864072
 32
0.0
 13
36386.941480172587
 23
-11267.5268864072
 33
0.0
210
0.0
220
0.0
230
1.0
  0
SOLID
  5
324B5
  8
D-STR-STRC_標識_
  6
CONTINUOUS
 62
     1
 10
-36386.140276336198
 20
-11267.48879447999
 30
0.0
 11
-36386.957429050548
 21
-11267.48879447999
 31
0.0
 12
-36386.941480172587
 22
-11267.5268864072
 32
0.0
 13
-36386.941480172587
 23
-11267.5268864072
 33
0.0
210
0.0
220
0.0
230
-1.0
  0
SOLID
  5
324B6
  8
D-STR-STRC_標識_
  6
CONTINUOUS
 62
     1
 10
36387.590975450163
 20
-11267.48879447999
 30
0.0
 11
36387.628553049173
 21
-11267.5268864072
 31
0.0
 12
36388.267690901943
 22
-11267.5268864072
 32
0.0
 13
36388.267690901943
 23
-11267.5268864072
 33
0.0
210
0.0
220
0.0
230
1.0
  0
SOLID
  5
324B7
  8
D-STR-STRC_標識_
  6
CONTINUOUS
 62
     1
 10
-36387.590975450163
 20
-11267.48879447999
 30
0.0
 11
-36388.230113302838
 21
-11267.48879447999
 31
0.0
 12
-36388.267690901943
 22
-11267.5268864072
 32
0.0
 13
-36388.267690901943
 23
-11267.5268864072
 33
0.0
210
0.0
220
0.0
230
-1.0
  0
SOLID
  5
324B8
  8
D-STR-STRC_標識_
  6
CONTINUOUS
 62
     1
 10
36390.91558814935
 20
-11267.48879447999
 30
0.0
 11
36390.931107936078
 21
-11267.5268864072
 31
0.0
 12
36391.744474065621
 22
-11267.5268864072
 32
0.0
 13
36391.744474065621
 23
-11267.5268864072
 33
0.0
210
0.0
220
0.0
230
1.0
  0
SOLID
  5
324B9
  8
D-STR-STRC_標識_
  6
CONTINUOUS
 62
     1
 10
-36390.91558814935
 20
-11267.48879447999
 30
0.0
 11
-36391.727025723092
 21
-11267.48879447999
 31
0.0
 12
-36391.744474065621
 22
-11267.5268864072
 32
0.0
 13
-36391.744474065621
 23
-11267.5268864072
 33
0.0
210
0.0
220
0.0
230
-1.0
  0
SOLID
  5
324BA
  8
D-STR-STRC_標識_
  6
CONTINUOUS
 62
     1
 10
36386.129791627529
 20
-11267.5268864072
 30
0.0
 11
36386.035405245777
 21
-11267.869800959799
 31
0.0
 12
36386.797903757608
 22
-11267.869800959799
 32
0.0
 13
36386.797903757608
 23
-11267.869800959799
 33
0.0
210
0.0
220
0.0
230
1.0
  0
SOLID
  5
324BB
  8
D-STR-STRC_標識_
  6
CONTINUOUS
 62
     1
 10
-36386.129791627529
 20
-11267.5268864072
 30
0.0
 11
-36386.941480172587
 21
-11267.5268864072
 31
0.0
 12
-36386.797903757608
 22
-11267.869800959799
 32
0.0
 13
-36386.797903757608
 23
-11267.869800959799
 33
0.0
210
0.0
220
0.0
230
-1.0
  0
SOLID
  5
324BC
  8
D-STR-STRC_標識_
  6
CONTINUOUS
 62
     1
 10
36387.628553049173
 20
-11267.5268864072
 30
0.0
 11
36387.966837470427
 21
-11267.869800959799
 31
0.0
 12
36388.605975324048
 22
-11267.869800959799
 32
0.0
 13
36388.605975324048
 23
-11267.869800959799
 33
0.0
  0
SOLID
  5
324BD
  8
D-STR-STRC_標識_
  6
CONTINUOUS
 62
     1
 10
-36387.628553049173
 20
-11267.5268864072
 30
0.0
 11
-36388.267690901943
 21
-11267.5268864072
 31
0.0
 12
-36388.605975324048
 22
-11267.869800959799
 32
0.0
 13
-36388.605975324048
 23
-11267.869800959799
 33
0.0
210
0.0
220
0.0
230
-1.0
  0
SOLID
  5
324BE
  8
D-STR-STRC_標識_
  6
CONTINUOUS
 62
     1
 10
36390.931107936078
 20
-11267.5268864072
 30
0.0
 11
36391.07082154767
 21
-11267.869800959799
 31
0.0
 12
36391.833864138338
 22
-11267.869800959799
 32
0.0
 13
36391.833864138338
 23
-11267.869800959799
 33
0.0
210
0.0
220
0.0
230
1.0
  0
SOLID
  5
324BF
  8
D-STR-STRC_標識_
  6
CONTINUOUS
 62
     1
 10
-36390.931107936078
 20
-11267.5268864072
 30
0.0
 11
-36391.744474065621
 21
-11267.5268864072
 31
0.0
 12
-36391.833864138338
 22
-11267.869800959799
 32
0.0
 13
-36391.833864138338
 23
-11267.869800959799
 33
0.0
210
0.0
220
0.0
230
-1.0
  0
SOLID
  5
324C0
  8
D-STR-STRC_標識_
  6
CONTINUOUS
 62
     1
 10
36386.035405245777
 20
-11267.869800959799
 30
0.0
 11
36386.02973538472
 21
-11267.89040009531
 31
0.0
 12
36386.793713853047
 22
-11267.89040009531
 32
0.0
 13
36386.793713853047
 23
-11267.89040009531
 33
0.0
210
0.0
220
0.0
230
1.0
  0
SOLID
  5
324C1
  8
D-STR-STRC_標識_
  6
CONTINUOUS
 62
     1
 10
-36386.035405245777
 20
-11267.869800959799
 30
0.0
 11
-36386.797903757608
 21
-11267.869800959799
 31
0.0
 12
-36386.793713853047
 22
-11267.89040009531
 32
0.0
 13
-36386.793713853047
 23
-11267.89040009531
 33
0.0
210
0.0
220
0.0
230
-1.0
  0
SOLID
  5
324C2
  8
D-STR-STRC_標識_
  6
CONTINUOUS
 62
     1
 10
36387.966837470427
 20
-11267.869800959799
 30
0.0
 11
36387.98715847046
 21
-11267.89040009531
 31
0.0
 12
36388.626296324117
 22
-11267.89040009531
 32
0.0
 13
36388.626296324117
 23
-11267.89040009531
 33
0.0
210
0.0
220
0.0
230
1.0
  0
SOLID
  5
324C3
  8
D-STR-STRC_標識_
  6
CONTINUOUS
 62
     1
 10
-36387.966837470427
 20
-11267.869800959799
 30
0.0
 11
-36388.605975324048
 21
-11267.869800959799
 31
0.0
 12
-36388.626296324117
 22
-11267.89040009531
 32
0.0
 13
-36388.626296324117
 23
-11267.89040009531
 33
0.0
210
0.0
220
0.0
230
-1.0
  0
SOLID
  5
324C4
  8
D-STR-STRC_標識_
  6
CONTINUOUS
 62
     1
 10
36391.07082154767
 20
-11267.869800959799
 30
0.0
 11
36391.07921424957
 21
-11267.89040009531
 31
0.0
 12
36391.839233867351
 22
-11267.89040009531
 32
0.0
 13
36391.839233867351
 23
-11267.89040009531
 33
0.0
210
0.0
220
0.0
230
1.0
  0
SOLID
  5
324C5
  8
D-STR-STRC_標識_
  6
CONTINUOUS
 62
     1
 10
-36391.07082154767
 20
-11267.869800959799
 30
0.0
 11
-36391.833864138338
 21
-11267.869800959799
 31
0.0
 12
-36391.839233867351
 22
-11267.89040009531
 32
0.0
 13
-36391.839233867351
 23
-11267.89040009531
 33
0.0
210
0.0
220
0.0
230
-1.0
  0
SOLID
  5
324C6
  8
D-STR-STRC_標識_
  6
CONTINUOUS
 62
     1
 10
36386.02973538472
 20
-11267.89040009531
 30
0.0
 11
36386.002333498021
 21
-11267.98995371252
 31
0.0
 12
36386.773464452119
 22
-11267.98995371252
 32
0.0
 13
36386.773464452119
 23
-11267.98995371252
 33
0.0
  0
SOLID
  5
324C7
  8
D-STR-STRC_標識_
  6
CONTINUOUS
 62
     1
 10
-36386.02973538472
 20
-11267.89040009531
 30
0.0
 11
-36386.793713853047
 21
-11267.89040009531
 31
0.0
 12
-36386.773464452119
 22
-11267.98995371252
 32
0.0
 13
-36386.773464452119
 23
-11267.98995371252
 33
0.0
210
0.0
220
0.0
230
-1.0
  0
SOLID
  5
324C8
  8
D-STR-STRC_標識_
  6
CONTINUOUS
 62
     1
 10
36387.98715847046
 20
-11267.89040009531
 30
0.0
 11
36388.085367885971
 21
-11267.98995371252
 31
0.0
 12
36388.72450573989
 22
-11267.98995371252
 32
0.0
 13
36388.72450573989
 23
-11267.98995371252
 33
0.0
210
0.0
220
0.0
230
1.0
  0
SOLID
  5
324C9
  8
D-STR-STRC_標識_
  6
CONTINUOUS
 62
     1
 10
-36387.98715847046
 20
-11267.89040009531
 30
0.0
 11
-36388.626296324117
 21
-11267.89040009531
 31
0.0
 12
-36388.72450573989
 22
-11267.98995371252
 32
0.0
 13
-36388.72450573989
 23
-11267.98995371252
 33
0.0
210
0.0
220
0.0
230
-1.0
  0
SOLID
  5
324CA
  8
D-STR-STRC_標識_
  6
CONTINUOUS
 62
     1
 10
36391.07921424957
 20
-11267.89040009531
 30
0.0
 11
36391.098467955657
 21
-11267.98995371252
 31
0.0
 12
36391.865185245071
 22
-11267.98995371252
 32
0.0
 13
36391.865185245071
 23
-11267.98995371252
 33
0.0
  0
SOLID
  5
324CB
  8
D-STR-STRC_標識_
  6
CONTINUOUS
 62
     1
 10
-36391.07921424957
 20
-11267.89040009531
 30
0.0
 11
-36391.839233867351
 21
-11267.89040009531
 31
0.0
 12
-36391.865185245071
 22
-11267.98995371252
 32
0.0
 13
-36391.865185245071
 23
-11267.98995371252
 33
0.0
210
0.0
220
0.0
230
-1.0
  0
SOLID
  5
324CC
  8
D-STR-STRC_標識_
  6
CONTINUOUS
 62
     1
 10
36386.002333498021
 20
-11267.98995371252
 30
0.0
 11
36385.998567303512
 21
-11268.02987445301
 31
0.0
 12
36386.76534449523
 22
-11268.02987445301
 32
0.0
 13
36386.76534449523
 23
-11268.02987445301
 33
0.0
210
0.0
220
0.0
230
1.0
  0
SOLID
  5
324CD
  8
D-STR-STRC_標識_
  6
CONTINUOUS
 62
     1
 10
-36386.002333498021
 20
-11267.98995371252
 30
0.0
 11
-36386.773464452119
 21
-11267.98995371252
 31
0.0
 12
-36386.76534449523
 22
-11268.02987445301
 32
0.0
 13
-36386.76534449523
 23
-11268.02987445301
 33
0.0
210
0.0
220
0.0
230
-1.0
  0
SOLID
  5
324CE
  8
D-STR-STRC_標識_
  6
CONTINUOUS
 62
     1
 10
36388.085367885971
 20
-11267.98995371252
 30
0.0
 11
36388.124749605093
 21
-11268.02987445301
 31
0.0
 12
36388.763887459099
 22
-11268.02987445301
 32
0.0
 13
36388.763887459099
 23
-11268.02987445301
 33
0.0
210
0.0
220
0.0
230
1.0
  0
SOLID
  5
324CF
  8
D-STR-STRC_標識_
  6
CONTINUOUS
 62
     1
 10
-36388.085367885971
 20
-11267.98995371252
 30
0.0
 11
-36388.72450573989
 21
-11267.98995371252
 31
0.0
 12
-36388.763887459099
 22
-11268.02987445301
 32
0.0
 13
-36388.763887459099
 23
-11268.02987445301
 33
0.0
210
0.0
220
0.0
230
-1.0
  0
SOLID
  5
324D0
  8
D-STR-STRC_標識_
  6
CONTINUOUS
 62
     1
 10
36391.098467955657
 20
-11267.98995371252
 30
0.0
 11
36391.106188641526
 21
-11268.02987445301
 31
0.0
 12
36391.87559167976
 22
-11268.02987445301
 32
0.0
 13
36391.87559167976
 23
-11268.02987445301
 33
0.0
210
0.0
220
0.0
230
1.0
  0
SOLID
  5
324D1
  8
D-STR-STRC_標識_
  6
CONTINUOUS
 62
     1
 10
-36391.098467955657
 20
-11267.98995371252
 30
0.0
 11
-36391.865185245071
 21
-11267.98995371252
 31
0.0
 12
-36391.87559167976
 22
-11268.02987445301
 32
0.0
 13
-36391.87559167976
 23
-11268.02987445301
 33
0.0
210
0.0
220
0.0
230
-1.0
  0
SOLID
  5
324D2
  8
D-STR-STRC_標識_
  6
CONTINUOUS
 62
     1
 10
36385.998567303512
 20
-11268.02987445301
 30
0.0
 11
36385.973238687409
 21
-11268.298351587329
 31
0.0
 12
36386.710735719702
 22
-11268.298351587329
 32
0.0
 13
36386.710735719702
 23
-11268.298351587329
 33
0.0
210
0.0
220
0.0
230
1.0
  0
SOLID
  5
324D3
  8
D-STR-STRC_標識_
  6
CONTINUOUS
 62
     1
 10
-36385.998567303512
 20
-11268.02987445301
 30
0.0
 11
-36386.76534449523
 21
-11268.02987445301
 31
0.0
 12
-36386.710735719702
 22
-11268.298351587329
 32
0.0
 13
-36386.710735719702
 23
-11268.298351587329
 33
0.0
210
0.0
220
0.0
230
-1.0
  0
SOLID
  5
324D4
  8
D-STR-STRC_標識_
  6
CONTINUOUS
 62
     1
 10
36388.124749605093
 20
-11268.02987445301
 30
0.0
 11
36388.389601683579
 21
-11268.298351587329
 31
0.0
 12
36389.028739538262
 22
-11268.298351587329
 32
0.0
 13
36389.028739538262
 23
-11268.298351587329
 33
0.0
210
0.0
220
0.0
230
1.0
  0
SOLID
  5
324D5
  8
D-STR-STRC_標識_
  6
CONTINUOUS
 62
     1
 10
-36388.124749605093
 20
-11268.02987445301
 30
0.0
 11
-36388.763887459099
 21
-11268.02987445301
 31
0.0
 12
-36389.028739538262
 22
-11268.298351587329
 32
0.0
 13
-36389.028739538262
 23
-11268.298351587329
 33
0.0
210
0.0
220
0.0
230
-1.0
  0
SOLID
  5
324D6
  8
D-STR-STRC_標識_
  6
CONTINUOUS
 62
     1
 10
36391.106188641526
 20
-11268.02987445301
 30
0.0
 11
36391.15811221781
 21
-11268.298351587329
 31
0.0
 12
36391.897242661951
 22
-11268.298351587329
 32
0.0
 13
36391.897242661951
 23
-11268.298351587329
 33
0.0
210
0.0
220
0.0
230
1.0
  0
SOLID
  5
324D7
  8
D-STR-STRC_標識_
  6
CONTINUOUS
 62
     1
 10
-36391.106188641526
 20
-11268.02987445301
 30
0.0
 11
-36391.87559167976
 21
-11268.02987445301
 31
0.0
 12
-36391.897242661951
 22
-11268.298351587329
 32
0.0
 13
-36391.897242661951
 23
-11268.298351587329
 33
0.0
210
0.0
220
0.0
230
-1.0
  0
SOLID
  5
324D8
  8
D-STR-STRC_標識_
  6
CONTINUOUS
 62
     1
 10
36385.973238687409
 20
-11268.298351587329
 30
0.0
 11
36385.971218067483
 21
-11268.319769664109
 31
0.0
 12
36386.710632668553
 22
-11268.319769664109
 32
0.0
 13
36386.710632668553
 23
-11268.319769664109
 33
0.0
210
0.0
220
0.0
230
1.0
  0
SOLID
  5
324D9
  8
D-STR-STRC_標識_
  6
CONTINUOUS
 62
     1
 10
-36385.973238687409
 20
-11268.298351587329
 30
0.0
 11
-36386.710735719702
 21
-11268.298351587329
 31
0.0
 12
-36386.710632668553
 22
-11268.319769664109
 32
0.0
 13
-36386.710632668553
 23
-11268.319769664109
 33
0.0
210
0.0
220
0.0
230
-1.0
  0
SOLID
  5
324DA
  8
D-STR-STRC_標識_
  6
CONTINUOUS
 62
     1
 10
36388.389601683579
 20
-11268.298351587329
 30
0.0
 11
36388.410730567302
 21
-11268.319769664109
 31
0.0
 12
36389.049868422037
 22
-11268.319769664109
 32
0.0
 13
36389.049868422037
 23
-11268.319769664109
 33
0.0
210
0.0
220
0.0
230
1.0
  0
SOLID
  5
324DB
  8
D-STR-STRC_標識_
  6
CONTINUOUS
 62
     1
 10
-36388.389601683579
 20
-11268.298351587329
 30
0.0
 11
-36389.028739538262
 21
-11268.298351587329
 31
0.0
 12
-36389.049868422037
 22
-11268.319769664109
 32
0.0
 13
-36389.049868422037
 23
-11268.319769664109
 33
0.0
210
0.0
220
0.0
230
-1.0
  0
SOLID
  5
324DC
  8
D-STR-STRC_標識_
  6
CONTINUOUS
 62
     1
 10
36391.15811221781
 20
-11268.298351587329
 30
0.0
 11
36391.162254481722
 21
-11268.319769664109
 31
0.0
 12
36391.898969894319
 22
-11268.319769664109
 32
0.0
 13
36391.898969894319
 23
-11268.319769664109
 33
0.0
210
0.0
220
0.0
230
1.0
  0
SOLID
  5
324DD
  8
D-STR-STRC_標識_
  6
CONTINUOUS
 62
     1
 10
-36391.15811221781
 20
-11268.298351587329
 30
0.0
 11
-36391.897242661951
 21
-11268.298351587329
 31
0.0
 12
-36391.898969894319
 22
-11268.319769664109
 32
0.0
 13
-36391.898969894319
 23
-11268.319769664109
 33
0.0
210
0.0
220
0.0
230
-1.0
  0
SOLID
  5
324DE
  8
D-STR-STRC_標識_
  6
CONTINUOUS
 62
     1
 10
36385.971218067483
 20
-11268.319769664109
 30
0.0
 11
36385.953511708969
 21
-11268.507452732691
 31
0.0
 12
36386.709729648268
 22
-11268.507452732691
 32
0.0
 13
36386.709729648268
 23
-11268.507452732691
 33
0.0
210
0.0
220
0.0
230
1.0
  0
SOLID
  5
324DF
  8
D-STR-STRC_標識_
  6
CONTINUOUS
 62
     1
 10
-36385.971218067483
 20
-11268.319769664109
 30
0.0
 11
-36386.710632668553
 21
-11268.319769664109
 31
0.0
 12
-36386.709729648268
 22
-11268.507452732691
 32
0.0
 13
-36386.709729648268
 23
-11268.507452732691
 33
0.0
210
0.0
220
0.0
230
-1.0
  0
SOLID
  5
324E0
  8
D-STR-STRC_標識_
  6
CONTINUOUS
 62
     1
 10
36388.410730567302
 20
-11268.319769664109
 30
0.0
 11
36388.595879484878
 21
-11268.507452732691
 31
0.0
 12
36389.235017340077
 22
-11268.507452732691
 32
0.0
 13
36389.235017340077
 23
-11268.507452732691
 33
0.0
210
0.0
220
0.0
230
1.0
  0
SOLID
  5
324E1
  8
D-STR-STRC_標識_
  6
CONTINUOUS
 62
     1
 10
-36388.410730567302
 20
-11268.319769664109
 30
0.0
 11
-36389.049868422037
 21
-11268.319769664109
 31
0.0
 12
-36389.235017340077
 22
-11268.507452732691
 32
0.0
 13
-36389.235017340077
 23
-11268.507452732691
 33
0.0
210
0.0
220
0.0
230
-1.0
  0
SOLID
  5
324E2
  8
D-STR-STRC_標識_
  6
CONTINUOUS
 62
     1
 10
36391.162254481722
 20
-11268.319769664109
 30
0.0
 11
36391.161351461669
 21
-11268.507452732691
 31
0.0
 12
36391.91410534631
 22
-11268.507452732691
 32
0.0
 13
36391.91410534631
 23
-11268.507452732691
 33
0.0
  0
SOLID
  5
324E3
  8
D-STR-STRC_標識_
  6
CONTINUOUS
 62
     1
 10
-36391.162254481722
 20
-11268.319769664109
 30
0.0
 11
-36391.898969894319
 21
-11268.319769664109
 31
0.0
 12
-36391.91410534631
 22
-11268.507452732691
 32
0.0
 13
-36391.91410534631
 23
-11268.507452732691
 33
0.0
210
0.0
220
0.0
230
-1.0
  0
SOLID
  5
324E4
  8
D-STR-STRC_標識_
  6
CONTINUOUS
 62
     1
 10
36385.953511708969
 20
-11268.507452732691
 30
0.0
 11
36385.956780727851
 21
-11268.54798931494
 31
0.0
 12
36386.709534610127
 22
-11268.54798931494
 32
0.0
 13
36386.709534610127
 23
-11268.54798931494
 33
0.0
210
0.0
220
0.0
230
1.0
  0
SOLID
  5
324E5
  8
D-STR-STRC_標識_
  6
CONTINUOUS
 62
     1
 10
-36385.953511708969
 20
-11268.507452732691
 30
0.0
 11
-36386.709729648268
 21
-11268.507452732691
 31
0.0
 12
-36386.709534610127
 22
-11268.54798931494
 32
0.0
 13
-36386.709534610127
 23
-11268.54798931494
 33
0.0
210
0.0
220
0.0
230
-1.0
  0
SOLID
  5
324E6
  8
D-STR-STRC_標識_
  6
CONTINUOUS
 62
     1
 10
36388.595879484878
 20
-11268.507452732691
 30
0.0
 11
36388.635868730489
 21
-11268.54798931494
 31
0.0
 12
36389.275006585784
 22
-11268.54798931494
 32
0.0
 13
36389.275006585784
 23
-11268.54798931494
 33
0.0
210
0.0
220
0.0
230
1.0
  0
SOLID
  5
324E7
  8
D-STR-STRC_標識_
  6
CONTINUOUS
 62
     1
 10
-36388.595879484878
 20
-11268.507452732691
 30
0.0
 11
-36389.235017340077
 21
-11268.507452732691
 31
0.0
 12
-36389.275006585784
 22
-11268.54798931494
 32
0.0
 13
-36389.275006585784
 23
-11268.54798931494
 33
0.0
210
0.0
220
0.0
230
-1.0
  0
SOLID
  5
324E8
  8
D-STR-STRC_標識_
  6
CONTINUOUS
 62
     1
 10
36391.161351461669
 20
-11268.507452732691
 30
0.0
 11
36391.161156423586
 21
-11268.54798931494
 31
0.0
 12
36391.917374365177
 22
-11268.54798931494
 32
0.0
 13
36391.917374365177
 23
-11268.54798931494
 33
0.0
210
0.0
220
0.0
230
1.0
  0
SOLID
  5
324E9
  8
D-STR-STRC_標識_
  6
CONTINUOUS
 62
     1
 10
-36391.161351461669
 20
-11268.507452732691
 30
0.0
 11
-36391.91410534631
 21
-11268.507452732691
 31
0.0
 12
-36391.917374365177
 22
-11268.54798931494
 32
0.0
 13
-36391.917374365177
 23
-11268.54798931494
 33
0.0
210
0.0
220
0.0
230
-1.0
  0
SOLID
  5
324EA
  8
D-STR-STRC_標識_
  6
CONTINUOUS
 62
     1
 10
36385.956780727851
 20
-11268.54798931494
 30
0.0
 11
36385.971916179922
 21
-11268.73567238471
 31
0.0
 12
36386.708631589849
 22
-11268.73567238471
 32
0.0
 13
36386.708631589849
 23
-11268.73567238471
 33
0.0
210
0.0
220
0.0
230
1.0
  0
SOLID
  5
324EB
  8
D-STR-STRC_標識_
  6
CONTINUOUS
 62
     1
 10
-36385.956780727851
 20
-11268.54798931494
 30
0.0
 11
-36386.709534610127
 21
-11268.54798931494
 31
0.0
 12
-36386.708631589849
 22
-11268.73567238471
 32
0.0
 13
-36386.708631589849
 23
-11268.73567238471
 33
0.0
210
0.0
220
0.0
230
-1.0
  0
SOLID
  5
324EC
  8
D-STR-STRC_標識_
  6
CONTINUOUS
 62
     1
 10
36388.635868730489
 20
-11268.54798931494
 30
0.0
 11
36388.821017649228
 21
-11268.73567238471
 31
0.0
 12
36389.460155505003
 22
-11268.73567238471
 32
0.0
 13
36389.460155505003
 23
-11268.73567238471
 33
0.0
210
0.0
220
0.0
230
1.0
  0
SOLID
  5
324ED
  8
D-STR-STRC_標識_
  6
CONTINUOUS
 62
     1
 10
-36388.635868730489
 20
-11268.54798931494
 30
0.0
 11
-36389.275006585784
 21
-11268.54798931494
 31
0.0
 12
-36389.460155505003
 22
-11268.73567238471
 32
0.0
 13
-36389.460155505003
 23
-11268.73567238471
 33
0.0
210
0.0
220
0.0
230
-1.0
  0
SOLID
  5
324EE
  8
D-STR-STRC_標識_
  6
CONTINUOUS
 62
     1
 10
36391.161156423586
 20
-11268.54798931494
 30
0.0
 11
36391.160253403526
 21
-11268.73567238471
 31
0.0
 12
36391.899668006547
 22
-11268.73567238471
 32
0.0
 13
36391.899668006547
 23
-11268.73567238471
 33
0.0
210
0.0
220
0.0
230
1.0
  0
SOLID
  5
324EF
  8
D-STR-STRC_標識_
  6
CONTINUOUS
 62
     1
 10
-36391.161156423586
 20
-11268.54798931494
 30
0.0
 11
-36391.917374365177
 21
-11268.54798931494
 31
0.0
 12
-36391.899668006547
 22
-11268.73567238471
 32
0.0
 13
-36391.899668006547
 23
-11268.73567238471
 33
0.0
210
0.0
220
0.0
230
-1.0
  0
SOLID
  5
324F0
  8
D-STR-STRC_標識_
  6
CONTINUOUS
 62
     1
 10
36385.971916179922
 20
-11268.73567238471
 30
0.0
 11
36385.973643412261
 21
-11268.757090461009
 31
0.0
 12
36386.712773853636
 22
-11268.757090461009
 32
0.0
 13
36386.712773853636
 23
-11268.757090461009
 33
0.0
  0
SOLID
  5
324F1
  8
D-STR-STRC_標識_
  6
CONTINUOUS
 62
     1
 10
-36385.971916179922
 20
-11268.73567238471
 30
0.0
 11
-36386.708631589849
 21
-11268.73567238471
 31
0.0
 12
-36386.712773853636
 22
-11268.757090461009
 32
0.0
 13
-36386.712773853636
 23
-11268.757090461009
 33
0.0
210
0.0
220
0.0
230
-1.0
  0
SOLID
  5
324F2
  8
D-STR-STRC_標識_
  6
CONTINUOUS
 62
     1
 10
36388.821017649228
 20
-11268.73567238471
 30
0.0
 11
36388.842146532479
 21
-11268.757090461009
 31
0.0
 12
36389.48128438829
 22
-11268.757090461009
 32
0.0
 13
36389.48128438829
 23
-11268.757090461009
 33
0.0
210
0.0
220
0.0
230
1.0
  0
SOLID
  5
324F3
  8
D-STR-STRC_標識_
  6
CONTINUOUS
 62
     1
 10
-36388.821017649228
 20
-11268.73567238471
 30
0.0
 11
-36389.460155505003
 21
-11268.73567238471
 31
0.0
 12
-36389.48128438829
 22
-11268.757090461009
 32
0.0
 13
-36389.48128438829
 23
-11268.757090461009
 33
0.0
210
0.0
220
0.0
230
-1.0
  0
SOLID
  5
324F4
  8
D-STR-STRC_標識_
  6
CONTINUOUS
 62
     1
 10
36391.160253403526
 20
-11268.73567238471
 30
0.0
 11
36391.160150352407
 21
-11268.757090461009
 31
0.0
 12
36391.897647386679
 22
-11268.757090461009
 32
0.0
 13
36391.897647386679
 23
-11268.757090461009
 33
0.0
  0
SOLID
  5
324F5
  8
D-STR-STRC_標識_
  6
CONTINUOUS
 62
     1
 10
-36391.160253403526
 20
-11268.73567238471
 30
0.0
 11
-36391.899668006547
 21
-11268.73567238471
 31
0.0
 12
-36391.897647386679
 22
-11268.757090461009
 32
0.0
 13
-36391.897647386679
 23
-11268.757090461009
 33
0.0
210
0.0
220
0.0
230
-1.0
  0
SOLID
  5
324F6
  8
D-STR-STRC_標識_
  6
CONTINUOUS
 62
     1
 10
36385.973643412261
 20
-11268.757090461009
 30
0.0
 11
36385.995294394394
 21
-11269.02556759463
 31
0.0
 12
36386.764697429433
 22
-11269.02556759463
 32
0.0
 13
36386.764697429433
 23
-11269.02556759463
 33
0.0
  0
SOLID
  5
324F7
  8
D-STR-STRC_標識_
  6
CONTINUOUS
 62
     1
 10
-36385.973643412261
 20
-11268.757090461009
 30
0.0
 11
-36386.712773853636
 21
-11268.757090461009
 31
0.0
 12
-36386.764697429433
 22
-11269.02556759463
 32
0.0
 13
-36386.764697429433
 23
-11269.02556759463
 33
0.0
210
0.0
220
0.0
230
-1.0
  0
SOLID
  5
324F8
  8
D-STR-STRC_標識_
  6
CONTINUOUS
 62
     1
 10
36388.842146532479
 20
-11268.757090461009
 30
0.0
 11
36389.106998610281
 21
-11269.02556759463
 31
0.0
 12
36389.746136466762
 22
-11269.02556759463
 32
0.0
 13
36389.746136466762
 23
-11269.02556759463
 33
0.0
210
0.0
220
0.0
230
1.0
  0
SOLID
  5
324F9
  8
D-STR-STRC_標識_
  6
CONTINUOUS
 62
     1
 10
-36388.842146532479
 20
-11268.757090461009
 30
0.0
 11
-36389.48128438829
 21
-11268.757090461009
 31
0.0
 12
-36389.746136466762
 22
-11269.02556759463
 32
0.0
 13
-36389.746136466762
 23
-11269.02556759463
 33
0.0
210
0.0
220
0.0
230
-1.0
  0
SOLID
  5
324FA
  8
D-STR-STRC_標識_
  6
CONTINUOUS
 62
     1
 10
36391.160150352407
 20
-11268.757090461009
 30
0.0
 11
36391.105541577374
 21
-11269.02556759463
 31
0.0
 12
36391.872318770642
 22
-11269.02556759463
 32
0.0
 13
36391.872318770642
 23
-11269.02556759463
 33
0.0
210
0.0
220
0.0
230
1.0
  0
SOLID
  5
324FB
  8
D-STR-STRC_標識_
  6
CONTINUOUS
 62
     1
 10
-36391.160150352407
 20
-11268.757090461009
 30
0.0
 11
-36391.897647386679
 21
-11268.757090461009
 31
0.0
 12
-36391.872318770642
 22
-11269.02556759463
 32
0.0
 13
-36391.872318770642
 23
-11269.02556759463
 33
0.0
210
0.0
220
0.0
230
-1.0
  0
SOLID
  5
324FC
  8
D-STR-STRC_標識_
  6
CONTINUOUS
 62
     1
 10
36385.995294394394
 20
-11269.02556759463
 30
0.0
 11
36386.005700829082
 21
-11269.065488335111
 31
0.0
 12
36386.772418115237
 22
-11269.065488335111
 32
0.0
 13
36386.772418115237
 23
-11269.065488335111
 33
0.0
210
0.0
220
0.0
230
1.0
  0
SOLID
  5
324FD
  8
D-STR-STRC_標識_
  6
CONTINUOUS
 62
     1
 10
-36385.995294394394
 20
-11269.02556759463
 30
0.0
 11
-36386.764697429433
 21
-11269.02556759463
 31
0.0
 12
-36386.772418115237
 22
-11269.065488335111
 32
0.0
 13
-36386.772418115237
 23
-11269.065488335111
 33
0.0
210
0.0
220
0.0
230
-1.0
  0
SOLID
  5
324FE
  8
D-STR-STRC_標識_
  6
CONTINUOUS
 62
     1
 10
36389.106998610281
 20
-11269.02556759463
 30
0.0
 11
36389.146380329403
 21
-11269.065488335111
 31
0.0
 12
36389.785518185978
 22
-11269.065488335111
 32
0.0
 13
36389.785518185978
 23
-11269.065488335111
 33
0.0
210
0.0
220
0.0
230
1.0
  0
SOLID
  5
324FF
  8
D-STR-STRC_標識_
  6
CONTINUOUS
 62
     1
 10
-36389.106998610281
 20
-11269.02556759463
 30
0.0
 11
-36389.746136466762
 21
-11269.02556759463
 31
0.0
 12
-36389.785518185978
 22
-11269.065488335111
 32
0.0
 13
-36389.785518185978
 23
-11269.065488335111
 33
0.0
210
0.0
220
0.0
230
-1.0
  0
SOLID
  5
32500
  8
D-STR-STRC_標識_
  6
CONTINUOUS
 62
     1
 10
36391.105541577374
 20
-11269.02556759463
 30
0.0
 11
36391.097421620543
 21
-11269.065488335111
 31
0.0
 12
36391.868552576132
 22
-11269.065488335111
 32
0.0
 13
36391.868552576132
 23
-11269.065488335111
 33
0.0
210
0.0
220
0.0
230
1.0
  0
SOLID
  5
32501
  8
D-STR-STRC_標識_
  6
CONTINUOUS
 62
     1
 10
-36391.105541577374
 20
-11269.02556759463
 30
0.0
 11
-36391.872318770642
 21
-11269.02556759463
 31
0.0
 12
-36391.868552576132
 22
-11269.065488335111
 32
0.0
 13
-36391.868552576132
 23
-11269.065488335111
 33
0.0
210
0.0
220
0.0
230
-1.0
  0
SOLID
  5
32502
  8
D-STR-STRC_標識_
  6
CONTINUOUS
 62
     1
 10
36386.005700829082
 20
-11269.065488335111
 30
0.0
 11
36386.031652207254
 21
-11269.165041954089
 31
0.0
 12
36386.791671821549
 22
-11269.165041954089
 32
0.0
 13
36386.791671821549
 23
-11269.165041954089
 33
0.0
210
0.0
220
0.0
230
1.0
  0
SOLID
  5
32503
  8
D-STR-STRC_標識_
  6
CONTINUOUS
 62
     1
 10
-36386.005700829082
 20
-11269.065488335111
 30
0.0
 11
-36386.772418115237
 21
-11269.065488335111
 31
0.0
 12
-36386.791671821549
 22
-11269.165041954089
 32
0.0
 13
-36386.791671821549
 23
-11269.165041954089
 33
0.0
210
0.0
220
0.0
230
-1.0
  0
SOLID
  5
32504
  8
D-STR-STRC_標識_
  6
CONTINUOUS
 62
     1
 10
36389.146380329403
 20
-11269.065488335111
 30
0.0
 11
36389.244589746653
 21
-11269.165041954089
 31
0.0
 12
36389.883727603483
 22
-11269.165041954089
 32
0.0
 13
36389.883727603483
 23
-11269.165041954089
 33
0.0
  0
SOLID
  5
32505
  8
D-STR-STRC_標識_
  6
CONTINUOUS
 62
     1
 10
-36389.146380329403
 20
-11269.065488335111
 30
0.0
 11
-36389.785518185978
 21
-11269.065488335111
 31
0.0
 12
-36389.883727603483
 22
-11269.165041954089
 32
0.0
 13
-36389.883727603483
 23
-11269.165041954089
 33
0.0
210
0.0
220
0.0
230
-1.0
  0
SOLID
  5
32506
  8
D-STR-STRC_標識_
  6
CONTINUOUS
 62
     1
 10
36391.097421620543
 20
-11269.065488335111
 30
0.0
 11
36391.077172219368
 21
-11269.165041954089
 31
0.0
 12
36391.841150688939
 22
-11269.165041954089
 32
0.0
 13
36391.841150688939
 23
-11269.165041954089
 33
0.0
  0
SOLID
  5
32507
  8
D-STR-STRC_標識_
  6
CONTINUOUS
 62
     1
 10
-36391.097421620543
 20
-11269.065488335111
 30
0.0
 11
-36391.868552576132
 21
-11269.065488335111
 31
0.0
 12
-36391.841150688939
 22
-11269.165041954089
 32
0.0
 13
-36391.841150688939
 23
-11269.165041954089
 33
0.0
210
0.0
220
0.0
230
-1.0
  0
SOLID
  5
32508
  8
D-STR-STRC_標識_
  6
CONTINUOUS
 62
     1
 10
36386.031652207254
 20
-11269.165041954089
 30
0.0
 11
36386.037021935903
 21
-11269.185641088179
 31
0.0
 12
36386.800064522831
 22
-11269.185641088179
 32
0.0
 13
36386.800064522831
 23
-11269.185641088179
 33
0.0
210
0.0
220
0.0
230
1.0
  0
SOLID
  5
32509
  8
D-STR-STRC_標識_
  6
CONTINUOUS
 62
     1
 10
-36386.031652207254
 20
-11269.165041954089
 30
0.0
 11
-36386.791671821549
 21
-11269.165041954089
 31
0.0
 12
-36386.800064522831
 22
-11269.185641088179
 32
0.0
 13
-36386.800064522831
 23
-11269.185641088179
 33
0.0
210
0.0
220
0.0
230
-1.0
  0
SOLID
  5
3250A
  8
D-STR-STRC_標識_
  6
CONTINUOUS
 62
     1
 10
36389.244589746653
 20
-11269.165041954089
 30
0.0
 11
36389.264910745282
 21
-11269.185641088179
 31
0.0
 12
36389.904048602162
 22
-11269.185641088179
 32
0.0
 13
36389.904048602162
 23
-11269.185641088179
 33
0.0
210
0.0
220
0.0
230
1.0
  0
SOLID
  5
3250B
  8
D-STR-STRC_標識_
  6
CONTINUOUS
 62
     1
 10
-36389.244589746653
 20
-11269.165041954089
 30
0.0
 11
-36389.883727603483
 21
-11269.165041954089
 31
0.0
 12
-36389.904048602162
 22
-11269.185641088179
 32
0.0
 13
-36389.904048602162
 23
-11269.185641088179
 33
0.0
210
0.0
220
0.0
230
-1.0
  0
SOLID
  5
3250C
  8
D-STR-STRC_標識_
  6
CONTINUOUS
 62
     1
 10
36391.077172219368
 20
-11269.165041954089
 30
0.0
 11
36391.072982315141
 21
-11269.185641088179
 31
0.0
 12
36391.835480828282
 22
-11269.185641088179
 32
0.0
 13
36391.835480828282
 23
-11269.185641088179
 33
0.0
210
0.0
220
0.0
230
1.0
  0
SOLID
  5
3250D
  8
D-STR-STRC_標識_
  6
CONTINUOUS
 62
     1
 10
-36391.077172219368
 20
-11269.165041954089
 30
0.0
 11
-36391.841150688939
 21
-11269.165041954089
 31
0.0
 12
-36391.835480828282
 22
-11269.185641088179
 32
0.0
 13
-36391.835480828282
 23
-11269.185641088179
 33
0.0
210
0.0
220
0.0
230
-1.0
  0
SOLID
  5
3250E
  8
D-STR-STRC_標識_
  6
CONTINUOUS
 62
     1
 10
36386.037021935903
 20
-11269.185641088179
 30
0.0
 11
36386.126412008532
 21
-11269.52855564044
 31
0.0
 12
36386.93977813379
 22
-11269.52855564044
 32
0.0
 13
36386.93977813379
 23
-11269.52855564044
 33
0.0
210
0.0
220
0.0
230
1.0
  0
SOLID
  5
3250F
  8
D-STR-STRC_標識_
  6
CONTINUOUS
 62
     1
 10
-36386.037021935903
 20
-11269.185641088179
 30
0.0
 11
-36386.800064522831
 21
-11269.185641088179
 31
0.0
 12
-36386.93977813379
 22
-11269.52855564044
 32
0.0
 13
-36386.93977813379
 23
-11269.52855564044
 33
0.0
210
0.0
220
0.0
230
-1.0
  0
SOLID
  5
32510
  8
D-STR-STRC_標識_
  6
CONTINUOUS
 62
     1
 10
36389.264910745282
 20
-11269.185641088179
 30
0.0
 11
36389.603195166193
 21
-11269.52855564044
 31
0.0
 12
36390.242333023918
 22
-11269.52855564044
 32
0.0
 13
36390.242333023918
 23
-11269.52855564044
 33
0.0
210
0.0
220
0.0
230
1.0
  0
SOLID
  5
32511
  8
D-STR-STRC_標識_
  6
CONTINUOUS
 62
     1
 10
-36389.264910745282
 20
-11269.185641088179
 30
0.0
 11
-36389.904048602162
 21
-11269.185641088179
 31
0.0
 12
-36390.242333023918
 22
-11269.52855564044
 32
0.0
 13
-36390.242333023918
 23
-11269.52855564044
 33
0.0
210
0.0
220
0.0
230
-1.0
  0
SOLID
  5
32512
  8
D-STR-STRC_標識_
  6
CONTINUOUS
 62
     1
 10
36391.072982315141
 20
-11269.185641088179
 30
0.0
 11
36390.929405900803
 21
-11269.52855564044
 31
0.0
 12
36391.741094446617
 22
-11269.52855564044
 32
0.0
 13
36391.741094446617
 23
-11269.52855564044
 33
0.0
210
0.0
220
0.0
230
1.0
  0
SOLID
  5
32513
  8
D-STR-STRC_標識_
  6
CONTINUOUS
 62
     1
 10
-36391.072982315141
 20
-11269.185641088179
 30
0.0
 11
-36391.835480828282
 21
-11269.185641088179
 31
0.0
 12
-36391.741094446617
 22
-11269.52855564044
 32
0.0
 13
-36391.741094446617
 23
-11269.52855564044
 33
0.0
210
0.0
220
0.0
230
-1.0
  0
SOLID
  5
32514
  8
D-STR-STRC_標識_
  6
CONTINUOUS
 62
     1
 10
36386.126412008532
 20
-11269.52855564044
 30
0.0
 11
36386.143860351061
 21
-11269.56664756765
 31
0.0
 12
36386.95529792046
 22
-11269.56664756765
 32
0.0
 13
36386.95529792046
 23
-11269.56664756765
 33
0.0
210
0.0
220
0.0
230
1.0
  0
SOLID
  5
32515
  8
D-STR-STRC_標識_
  6
CONTINUOUS
 62
     1
 10
-36386.126412008532
 20
-11269.52855564044
 30
0.0
 11
-36386.93977813379
 21
-11269.52855564044
 31
0.0
 12
-36386.95529792046
 22
-11269.56664756765
 32
0.0
 13
-36386.95529792046
 23
-11269.56664756765
 33
0.0
210
0.0
220
0.0
230
-1.0
  0
SOLID
  5
32516
  8
D-STR-STRC_標識_
  6
CONTINUOUS
 62
     1
 10
36389.603195166193
 20
-11269.52855564044
 30
0.0
 11
36389.640772765197
 21
-11269.56664756765
 31
0.0
 12
36390.279910623023
 22
-11269.56664756765
 32
0.0
 13
36390.279910623023
 23
-11269.56664756765
 33
0.0
210
0.0
220
0.0
230
1.0
  0
SOLID
  5
32517
  8
D-STR-STRC_標識_
  6
CONTINUOUS
 62
     1
 10
-36389.603195166193
 20
-11269.52855564044
 30
0.0
 11
-36390.242333023918
 21
-11269.52855564044
 31
0.0
 12
-36390.279910623023
 22
-11269.56664756765
 32
0.0
 13
-36390.279910623023
 23
-11269.56664756765
 33
0.0
210
0.0
220
0.0
230
-1.0
  0
SOLID
  5
32518
  8
D-STR-STRC_標識_
  6
CONTINUOUS
 62
     1
 10
36390.929405900803
 20
-11269.52855564044
 30
0.0
 11
36390.913457022893
 21
-11269.56664756765
 31
0.0
 12
36391.730609737948
 22
-11269.56664756765
 32
0.0
 13
36391.730609737948
 23
-11269.56664756765
 33
0.0
210
0.0
220
0.0
230
1.0
  0
SOLID
  5
32519
  8
D-STR-STRC_標識_
  6
CONTINUOUS
 62
     1
 10
-36390.929405900803
 20
-11269.52855564044
 30
0.0
 11
-36391.741094446617
 21
-11269.52855564044
 31
0.0
 12
-36391.730609737948
 22
-11269.56664756765
 32
0.0
 13
-36391.730609737948
 23
-11269.56664756765
 33
0.0
210
0.0
220
0.0
230
-1.0
  0
SOLID
  5
3251A
  8
D-STR-STRC_標識_
  6
CONTINUOUS
 62
     1
 10
36386.143860351061
 20
-11269.56664756765
 30
0.0
 11
36386.145415622428
 21
-11269.570042920741
 31
0.0
 12
36386.956681288517
 22
-11269.570042920741
 32
0.0
 13
36386.956681288517
 23
-11269.570042920741
 33
0.0
  0
SOLID
  5
3251B
  8
D-STR-STRC_標識_
  6
CONTINUOUS
 62
     1
 10
-36386.143860351061
 20
-11269.56664756765
 30
0.0
 11
-36386.95529792046
 21
-11269.56664756765
 31
0.0
 12
-36386.956681288517
 22
-11269.570042920741
 32
0.0
 13
-36386.956681288517
 23
-11269.570042920741
 33
0.0
210
0.0
220
0.0
230
-1.0
  0
SOLID
  5
3251C
  8
D-STR-STRC_標識_
  6
CONTINUOUS
 62
     1
 10
36389.640772765197
 20
-11269.56664756765
 30
0.0
 11
36389.644122273261
 21
-11269.570042920741
 31
0.0
 12
36390.283260131087
 22
-11269.570042920741
 32
0.0
 13
36390.283260131087
 23
-11269.570042920741
 33
0.0
210
0.0
220
0.0
230
1.0
  0
SOLID
  5
3251D
  8
D-STR-STRC_標識_
  6
CONTINUOUS
 62
     1
 10
-36389.640772765197
 20
-11269.56664756765
 30
0.0
 11
-36390.279910623023
 21
-11269.56664756765
 31
0.0
 12
-36390.283260131087
 22
-11269.570042920741
 32
0.0
 13
-36390.283260131087
 23
-11269.570042920741
 33
0.0
210
0.0
220
0.0
230
-1.0
  0
SOLID
  5
3251E
  8
D-STR-STRC_標識_
  6
CONTINUOUS
 62
     1
 10
36390.913457022893
 20
-11269.56664756765
 30
0.0
 11
36390.912035407462
 21
-11269.570042920741
 31
0.0
 12
36391.72899827292
 22
-11269.570042920741
 32
0.0
 13
36391.72899827292
 23
-11269.570042920741
 33
0.0
210
0.0
220
0.0
230
1.0
  0
SOLID
  5
3251F
  8
D-STR-STRC_標識_
  6
CONTINUOUS
 62
     1
 10
-36390.913457022893
 20
-11269.56664756765
 30
0.0
 11
-36391.730609737948
 21
-11269.56664756765
 31
0.0
 12
-36391.72899827292
 22
-11269.570042920741
 32
0.0
 13
-36391.72899827292
 23
-11269.570042920741
 33
0.0
210
0.0
220
0.0
230
-1.0
  0
SOLID
  5
32520
  8
D-STR-STRC_標識_
  6
CONTINUOUS
 62
     1
 10
36386.145415622428
 20
-11269.570042920741
 30
0.0
 11
36386.154115333178
 21
-11269.589035483959
 31
0.0
 12
36386.969199348292
 22
-11269.589035483959
 32
0.0
 13
36386.969199348292
 23
-11269.589035483959
 33
0.0
210
0.0
220
0.0
230
1.0
  0
SOLID
  5
32521
  8
D-STR-STRC_標識_
  6
CONTINUOUS
 62
     1
 10
-36386.145415622428
 20
-11269.570042920741
 30
0.0
 11
-36386.956681288517
 21
-11269.570042920741
 31
0.0
 12
-36386.969199348292
 22
-11269.589035483959
 32
0.0
 13
-36386.969199348292
 23
-11269.589035483959
 33
0.0
210
0.0
220
0.0
230
-1.0
  0
SOLID
  5
32522
  8
D-STR-STRC_標識_
  6
CONTINUOUS
 62
     1
 10
36389.644122273261
 20
-11269.570042920741
 30
0.0
 11
36389.662858393407
 21
-11269.589035483959
 31
0.0
 12
36390.301996251277
 22
-11269.589035483959
 32
0.0
 13
36390.301996251277
 23
-11269.589035483959
 33
0.0
210
0.0
220
0.0
230
1.0
  0
SOLID
  5
32523
  8
D-STR-STRC_標識_
  6
CONTINUOUS
 62
     1
 10
-36389.644122273261
 20
-11269.570042920741
 30
0.0
 11
-36390.283260131087
 21
-11269.570042920741
 31
0.0
 12
-36390.301996251277
 22
-11269.589035483959
 32
0.0
 13
-36390.301996251277
 23
-11269.589035483959
 33
0.0
210
0.0
220
0.0
230
-1.0
  0
SOLID
  5
32524
  8
D-STR-STRC_標識_
  6
CONTINUOUS
 62
     1
 10
36390.912035407462
 20
-11269.570042920741
 30
0.0
 11
36390.904083326946
 21
-11269.589035483959
 31
0.0
 12
36391.719984232033
 22
-11269.589035483959
 32
0.0
 13
36391.719984232033
 23
-11269.589035483959
 33
0.0
210
0.0
220
0.0
230
1.0
  0
SOLID
  5
32525
  8
D-STR-STRC_標識_
  6
CONTINUOUS
 62
     1
 10
-36390.912035407462
 20
-11269.570042920741
 30
0.0
 11
-36391.72899827292
 21
-11269.570042920741
 31
0.0
 12
-36391.719984232033
 22
-11269.589035483959
 32
0.0
 13
-36391.719984232033
 23
-11269.589035483959
 33
0.0
210
0.0
220
0.0
230
-1.0
  0
SOLID
  5
32526
  8
D-STR-STRC_標識_
  6
CONTINUOUS
 62
     1
 10
36386.154115333178
 20
-11269.589035483959
 30
0.0
 11
36386.31267430383
 21
-11269.93518966786
 31
0.0
 12
36387.197350688861
 22
-11269.93518966786
 32
0.0
 13
36387.197350688861
 23
-11269.93518966786
 33
0.0
210
0.0
220
0.0
230
1.0
  0
SOLID
  5
32527
  8
D-STR-STRC_標識_
  6
CONTINUOUS
 62
     1
 10
-36386.154115333178
 20
-11269.589035483959
 30
0.0
 11
-36386.969199348292
 21
-11269.589035483959
 31
0.0
 12
-36387.197350688861
 22
-11269.93518966786
 32
0.0
 13
-36387.197350688861
 23
-11269.93518966786
 33
0.0
210
0.0
220
0.0
230
-1.0
  0
SOLID
  5
32528
  8
D-STR-STRC_標識_
  6
CONTINUOUS
 62
     1
 10
36389.662858393407
 20
-11269.589035483959
 30
0.0
 11
36390.004338703511
 21
-11269.93518966786
 31
0.0
 12
36390.643476562247
 22
-11269.93518966786
 32
0.0
 13
36390.643476562247
 23
-11269.93518966786
 33
0.0
  0
SOLID
  5
32529
  8
D-STR-STRC_標識_
  6
CONTINUOUS
 62
     1
 10
-36389.662858393407
 20
-11269.589035483959
 30
0.0
 11
-36390.301996251277
 21
-11269.589035483959
 31
0.0
 12
-36390.643476562247
 22
-11269.93518966786
 32
0.0
 13
-36390.643476562247
 23
-11269.93518966786
 33
0.0
210
0.0
220
0.0
230
-1.0
  0
SOLID
  5
3252A
  8
D-STR-STRC_標識_
  6
CONTINUOUS
 62
     1
 10
36390.904083326946
 20
-11269.589035483959
 30
0.0
 11
36390.671123363143
 21
-11269.93518966786
 31
0.0
 12
36391.555696351148
 22
-11269.93518966786
 32
0.0
 13
36391.555696351148
 23
-11269.93518966786
 33
0.0
210
0.0
220
0.0
230
1.0
  0
SOLID
  5
3252B
  8
D-STR-STRC_標識_
  6
CONTINUOUS
 62
     1
 10
-36390.904083326946
 20
-11269.589035483959
 30
0.0
 11
-36391.719984232033
 21
-11269.589035483959
 31
0.0
 12
-36391.555696351148
 22
-11269.93518966786
 32
0.0
 13
-36391.555696351148
 23
-11269.93518966786
 33
0.0
210
0.0
220
0.0
230
-1.0
  0
SOLID
  5
3252C
  8
D-STR-STRC_標識_
  6
CONTINUOUS
 62
     1
 10
36386.31267430383
 20
-11269.93518966786
 30
0.0
 11
36386.320305468442
 21
-11269.951849460391
 31
0.0
 12
36387.213785536063
 22
-11269.951849460391
 32
0.0
 13
36387.213785536063
 23
-11269.951849460391
 33
0.0
210
0.0
220
0.0
230
1.0
  0
SOLID
  5
3252D
  8
D-STR-STRC_標識_
  6
CONTINUOUS
 62
     1
 10
-36386.31267430383
 20
-11269.93518966786
 30
0.0
 11
-36387.197350688861
 21
-11269.93518966786
 31
0.0
 12
-36387.213785536063
 22
-11269.951849460391
 32
0.0
 13
-36387.213785536063
 23
-11269.951849460391
 33
0.0
210
0.0
220
0.0
230
-1.0
  0
SOLID
  5
3252E
  8
D-STR-STRC_標識_
  6
CONTINUOUS
 62
     1
 10
36390.004338703511
 20
-11269.93518966786
 30
0.0
 11
36390.020773550721
 21
-11269.951849460391
 31
0.0
 12
36390.659911409493
 22
-11269.951849460391
 32
0.0
 13
36390.659911409493
 23
-11269.951849460391
 33
0.0
210
0.0
220
0.0
230
1.0
  0
SOLID
  5
3252F
  8
D-STR-STRC_標識_
  6
CONTINUOUS
 62
     1
 10
-36390.004338703511
 20
-11269.93518966786
 30
0.0
 11
-36390.643476562247
 21
-11269.93518966786
 31
0.0
 12
-36390.659911409493
 22
-11269.951849460391
 32
0.0
 13
-36390.659911409493
 23
-11269.951849460391
 33
0.0
210
0.0
220
0.0
230
-1.0
  0
SOLID
  5
32530
  8
D-STR-STRC_標識_
  6
CONTINUOUS
 62
     1
 10
36390.671123363143
 20
-11269.93518966786
 30
0.0
 11
36390.659911409493
 21
-11269.951849460391
 31
0.0
 12
36391.547789464174
 22
-11269.951849460391
 32
0.0
 13
36391.547789464174
 23
-11269.951849460391
 33
0.0
  0
SOLID
  5
32531
  8
D-STR-STRC_標識_
  6
CONTINUOUS
 62
     1
 10
-36390.671123363143
 20
-11269.93518966786
 30
0.0
 11
-36391.555696351148
 21
-11269.93518966786
 31
0.0
 12
-36391.547789464174
 22
-11269.951849460391
 32
0.0
 13
-36391.547789464174
 23
-11269.951849460391
 33
0.0
210
0.0
220
0.0
230
-1.0
  0
SOLID
  5
32532
  8
D-STR-STRC_標識_
  6
CONTINUOUS
 62
     1
 10
36386.320305468442
 20
-11269.951849460391
 30
0.0
 11
36386.342880609031
 21
-11270.00113383286
 31
0.0
 12
36387.262404456713
 22
-11270.00113383286
 32
0.0
 13
36387.262404456713
 23
-11270.00113383286
 33
0.0
  0
SOLID
  5
32533
  8
D-STR-STRC_標識_
  6
CONTINUOUS
 62
     1
 10
-36386.320305468442
 20
-11269.951849460391
 30
0.0
 11
-36387.213785536063
 21
-11269.951849460391
 31
0.0
 12
-36387.262404456713
 22
-11270.00113383286
 32
0.0
 13
-36387.262404456713
 23
-11270.00113383286
 33
0.0
210
0.0
220
0.0
230
-1.0
  0
SOLID
  5
32534
  8
D-STR-STRC_標識_
  6
CONTINUOUS
 62
     1
 10
36390.020773550721
 20
-11269.951849460391
 30
0.0
 11
36390.069392471363
 21
-11270.00113383286
 31
0.0
 12
36391.524398658883
 22
-11270.00113383286
 32
0.0
 13
36391.524398658883
 23
-11270.00113383286
 33
0.0
210
0.0
220
0.0
230
1.0
  0
SOLID
  5
32535
  8
D-STR-STRC_標識_
  6
CONTINUOUS
 62
     1
 10
-36390.020773550721
 20
-11269.951849460391
 30
0.0
 11
-36391.547789464174
 21
-11269.951849460391
 31
0.0
 12
-36391.524398658883
 22
-11270.00113383286
 32
0.0
 13
-36391.524398658883
 23
-11270.00113383286
 33
0.0
210
0.0
220
0.0
230
-1.0
  0
SOLID
  5
32536
  8
D-STR-STRC_標識_
  6
CONTINUOUS
 62
     1
 10
36386.342880609031
 20
-11270.00113383286
 30
0.0
 11
36386.367107970953
 21
-11270.03623954288
 31
0.0
 12
36387.297036159282
 22
-11270.03623954288
 32
0.0
 13
36387.297036159282
 23
-11270.03623954288
 33
0.0
210
0.0
220
0.0
230
1.0
  0
SOLID
  5
32537
  8
D-STR-STRC_標識_
  6
CONTINUOUS
 62
     1
 10
-36386.342880609031
 20
-11270.00113383286
 30
0.0
 11
-36387.262404456713
 21
-11270.00113383286
 31
0.0
 12
-36387.297036159282
 22
-11270.03623954288
 32
0.0
 13
-36387.297036159282
 23
-11270.03623954288
 33
0.0
210
0.0
220
0.0
230
-1.0
  0
SOLID
  5
32538
  8
D-STR-STRC_標識_
  6
CONTINUOUS
 62
     1
 10
36390.069392471363
 20
-11270.00113383286
 30
0.0
 11
36390.104024173932
 21
-11270.03623954288
 31
0.0
 12
36391.50773717399
 22
-11270.03623954288
 32
0.0
 13
36391.50773717399
 23
-11270.03623954288
 33
0.0
210
0.0
220
0.0
230
1.0
  0
SOLID
  5
32539
  8
D-STR-STRC_標識_
  6
CONTINUOUS
 62
     1
 10
-36390.069392471363
 20
-11270.00113383286
 30
0.0
 11
-36391.524398658883
 21
-11270.00113383286
 31
0.0
 12
-36391.50773717399
 22
-11270.03623954288
 32
0.0
 13
-36391.50773717399
 23
-11270.03623954288
 33
0.0
210
0.0
220
0.0
230
-1.0
  0
SOLID
  5
3253A
  8
D-STR-STRC_標識_
  6
CONTINUOUS
 62
     1
 10
36386.367107970953
 20
-11270.03623954288
 30
0.0
 11
36386.512228280633
 21
-11270.24652044452
 31
0.0
 12
36387.50447778745
 22
-11270.24652044452
 32
0.0
 13
36387.50447778745
 23
-11270.24652044452
 33
0.0
210
0.0
220
0.0
230
1.0
  0
SOLID
  5
3253B
  8
D-STR-STRC_標識_
  6
CONTINUOUS
 62
     1
 10
-36386.367107970953
 20
-11270.03623954288
 30
0.0
 11
-36387.297036159282
 21
-11270.03623954288
 31
0.0
 12
-36387.50447778745
 22
-11270.24652044452
 32
0.0
 13
-36387.50447778745
 23
-11270.24652044452
 33
0.0
210
0.0
220
0.0
230
-1.0
  0
SOLID
  5
3253C
  8
D-STR-STRC_標識_
  6
CONTINUOUS
 62
     1
 10
36390.104024173932
 20
-11270.03623954288
 30
0.0
 11
36390.3114658021
 21
-11270.24652044452
 31
0.0
 12
36391.358356663011
 22
-11270.24652044452
 32
0.0
 13
36391.358356663011
 23
-11270.24652044452
 33
0.0
210
0.0
220
0.0
230
1.0
  0
SOLID
  5
3253D
  8
D-STR-STRC_標識_
  6
CONTINUOUS
 62
     1
 10
-36390.104024173932
 20
-11270.03623954288
 30
0.0
 11
-36391.50773717399
 21
-11270.03623954288
 31
0.0
 12
-36391.358356663011
 22
-11270.24652044452
 32
0.0
 13
-36391.358356663011
 23
-11270.24652044452
 33
0.0
210
0.0
220
0.0
230
-1.0
  0
SOLID
  5
3253E
  8
D-STR-STRC_標識_
  6
CONTINUOUS
 62
     1
 10
36386.512228280633
 20
-11270.24652044452
 30
0.0
 11
36386.529390621326
 21
-11270.2713888622
 31
0.0
 12
36387.541114720967
 22
-11270.2713888622
 32
0.0
 13
36387.541114720967
 23
-11270.2713888622
 33
0.0
  0
SOLID
  5
3253F
  8
D-STR-STRC_標識_
  6
CONTINUOUS
 62
     1
 10
-36386.512228280633
 20
-11270.24652044452
 30
0.0
 11
-36387.50447778745
 21
-11270.24652044452
 31
0.0
 12
-36387.541114720967
 22
-11270.2713888622
 32
0.0
 13
-36387.541114720967
 23
-11270.2713888622
 33
0.0
210
0.0
220
0.0
230
-1.0
  0
SOLID
  5
32540
  8
D-STR-STRC_標識_
  6
CONTINUOUS
 62
     1
 10
36390.3114658021
 20
-11270.24652044452
 30
0.0
 11
36390.335998439223
 21
-11270.2713888622
 31
0.0
 12
36391.340690498793
 22
-11270.2713888622
 32
0.0
 13
36391.340690498793
 23
-11270.2713888622
 33
0.0
210
0.0
220
0.0
230
1.0
  0
SOLID
  5
32541
  8
D-STR-STRC_標識_
  6
CONTINUOUS
 62
     1
 10
-36390.3114658021
 20
-11270.24652044452
 30
0.0
 11
-36391.358356663011
 21
-11270.24652044452
 31
0.0
 12
-36391.340690498793
 22
-11270.2713888622
 32
0.0
 13
-36391.340690498793
 23
-11270.2713888622
 33
0.0
210
0.0
220
0.0
230
-1.0
  0
SOLID
  5
32542
  8
D-STR-STRC_標識_
  6
CONTINUOUS
 62
     1
 10
36386.529390621326
 20
-11270.2713888622
 30
0.0
 11
36386.63812290701
 21
-11270.42894312267
 31
0.0
 12
36387.773228602993
 22
-11270.42894312267
 32
0.0
 13
36387.773228602993
 23
-11270.42894312267
 33
0.0
210
0.0
220
0.0
230
1.0
  0
SOLID
  5
32543
  8
D-STR-STRC_標識_
  6
CONTINUOUS
 62
     1
 10
-36386.529390621326
 20
-11270.2713888622
 30
0.0
 11
-36387.541114720967
 21
-11270.2713888622
 31
0.0
 12
-36387.773228602993
 22
-11270.42894312267
 32
0.0
 13
-36387.773228602993
 23
-11270.42894312267
 33
0.0
210
0.0
220
0.0
230
-1.0
  0
SOLID
  5
32544
  8
D-STR-STRC_標識_
  6
CONTINUOUS
 62
     1
 10
36390.335998439223
 20
-11270.2713888622
 30
0.0
 11
36390.094876625197
 21
-11270.42894312267
 31
0.0
 12
36391.228766231041
 22
-11270.42894312267
 32
0.0
 13
36391.228766231041
 23
-11270.42894312267
 33
0.0
210
0.0
220
0.0
230
1.0
  0
SOLID
  5
32545
  8
D-STR-STRC_標識_
  6
CONTINUOUS
 62
     1
 10
-36390.335998439223
 20
-11270.2713888622
 30
0.0
 11
-36391.340690498793
 21
-11270.2713888622
 31
0.0
 12
-36391.228766231041
 22
-11270.42894312267
 32
0.0
 13
-36391.228766231041
 23
-11270.42894312267
 33
0.0
210
0.0
220
0.0
230
-1.0
  0
SOLID
  5
32546
  8
D-STR-STRC_標識_
  6
CONTINUOUS
 62
     1
 10
36386.63812290701
 20
-11270.42894312267
 30
0.0
 11
36386.668756446241
 21
-11270.45999594625
 31
0.0
 12
36387.818976597409
 22
-11270.45999594625
 32
0.0
 13
36387.818976597409
 23
-11270.45999594625
 33
0.0
210
0.0
220
0.0
230
1.0
  0
SOLID
  5
32547
  8
D-STR-STRC_標識_
  6
CONTINUOUS
 62
     1
 10
-36386.63812290701
 20
-11270.42894312267
 30
0.0
 11
-36387.773228602993
 21
-11270.42894312267
 31
0.0
 12
-36387.818976597409
 22
-11270.45999594625
 32
0.0
 13
-36387.818976597409
 23
-11270.45999594625
 33
0.0
210
0.0
220
0.0
230
-1.0
  0
SOLID
  5
32548
  8
D-STR-STRC_標識_
  6
CONTINUOUS
 62
     1
 10
36390.094876625197
 20
-11270.42894312267
 30
0.0
 11
36390.047353231494
 21
-11270.45999594625
 31
0.0
 12
36391.206706754332
 22
-11270.45999594625
 32
0.0
 13
36391.206706754332
 23
-11270.45999594625
 33
0.0
210
0.0
220
0.0
230
1.0
  0
SOLID
  5
32549
  8
D-STR-STRC_標識_
  6
CONTINUOUS
 62
     1
 10
-36390.094876625197
 20
-11270.42894312267
 30
0.0
 11
-36391.228766231041
 21
-11270.42894312267
 31
0.0
 12
-36391.206706754332
 22
-11270.45999594625
 32
0.0
 13
-36391.206706754332
 23
-11270.45999594625
 33
0.0
210
0.0
220
0.0
230
-1.0
  0
SOLID
  5
3254A
  8
D-STR-STRC_標識_
  6
CONTINUOUS
 62
     1
 10
36386.668756446241
 20
-11270.45999594625
 30
0.0
 11
36386.700457807507
 21
-11270.492131207269
 31
0.0
 12
36387.866319272653
 22
-11270.492131207269
 32
0.0
 13
36387.866319272653
 23
-11270.492131207269
 33
0.0
210
0.0
220
0.0
230
1.0
  0
SOLID
  5
3254B
  8
D-STR-STRC_標識_
  6
CONTINUOUS
 62
     1
 10
-36386.668756446241
 20
-11270.45999594625
 30
0.0
 11
-36387.818976597409
 21
-11270.45999594625
 31
0.0
 12
-36387.866319272653
 22
-11270.492131207269
 32
0.0
 13
-36387.866319272653
 23
-11270.492131207269
 33
0.0
210
0.0
220
0.0
230
-1.0
  0
SOLID
  5
3254C
  8
D-STR-STRC_標識_
  6
CONTINUOUS
 62
     1
 10
36390.047353231494
 20
-11270.45999594625
 30
0.0
 11
36389.998173270193
 21
-11270.492131207269
 31
0.0
 12
36391.174131654727
 22
-11270.492131207269
 32
0.0
 13
36391.174131654727
 23
-11270.492131207269
 33
0.0
  0
SOLID
  5
3254D
  8
D-STR-STRC_標識_
  6
CONTINUOUS
 62
     1
 10
-36390.047353231494
 20
-11270.45999594625
 30
0.0
 11
-36391.206706754332
 21
-11270.45999594625
 31
0.0
 12
-36391.174131654727
 22
-11270.492131207269
 32
0.0
 13
-36391.174131654727
 23
-11270.492131207269
 33
0.0
210
0.0
220
0.0
230
-1.0
  0
SOLID
  5
3254E
  8
D-STR-STRC_標識_
  6
CONTINUOUS
 62
     1
 10
36386.700457807507
 20
-11270.492131207269
 30
0.0
 11
36386.718683475083
 21
-11270.510606331411
 31
0.0
 12
36387.909957570337
 22
-11270.510606331411
 32
0.0
 13
36387.909957570337
 23
-11270.510606331411
 33
0.0
  0
SOLID
  5
3254F
  8
D-STR-STRC_標識_
  6
CONTINUOUS
 62
     1
 10
-36386.700457807507
 20
-11270.492131207269
 30
0.0
 11
-36387.866319272653
 21
-11270.492131207269
 31
0.0
 12
-36387.909957570337
 22
-11270.510606331411
 32
0.0
 13
-36387.909957570337
 23
-11270.510606331411
 33
0.0
210
0.0
220
0.0
230
-1.0
  0
SOLID
  5
32550
  8
D-STR-STRC_標識_
  6
CONTINUOUS
 62
     1
 10
36389.998173270193
 20
-11270.492131207269
 30
0.0
 11
36389.969898849471
 21
-11270.510606331411
 31
0.0
 12
36391.155403659701
 22
-11270.510606331411
 32
0.0
 13
36391.155403659701
 23
-11270.510606331411
 33
0.0
210
0.0
220
0.0
230
1.0
  0
SOLID
  5
32551
  8
D-STR-STRC_標識_
  6
CONTINUOUS
 62
     1
 10
-36389.998173270193
 20
-11270.492131207269
 30
0.0
 11
-36391.174131654727
 21
-11270.492131207269
 31
0.0
 12
-36391.155403659701
 22
-11270.510606331411
 32
0.0
 13
-36391.155403659701
 23
-11270.510606331411
 33
0.0
210
0.0
220
0.0
230
-1.0
  0
SOLID
  5
32552
  8
D-STR-STRC_標識_
  6
CONTINUOUS
 62
     1
 10
36386.718683475083
 20
-11270.510606331411
 30
0.0
 11
36386.868655247883
 21
-11270.662630783059
 31
0.0
 12
36388.269039773542
 22
-11270.662630783059
 32
0.0
 13
36388.269039773542
 23
-11270.662630783059
 33
0.0
210
0.0
220
0.0
230
1.0
  0
SOLID
  5
32553
  8
D-STR-STRC_標識_
  6
CONTINUOUS
 62
     1
 10
-36386.718683475083
 20
-11270.510606331411
 30
0.0
 11
-36387.909957570337
 21
-11270.510606331411
 31
0.0
 12
-36388.269039773542
 22
-11270.662630783059
 32
0.0
 13
-36388.269039773542
 23
-11270.662630783059
 33
0.0
210
0.0
220
0.0
230
-1.0
  0
SOLID
  5
32554
  8
D-STR-STRC_標識_
  6
CONTINUOUS
 62
     1
 10
36389.969898849471
 20
-11270.510606331411
 30
0.0
 11
36389.592486173096
 21
-11270.662630783059
 31
0.0
 12
36391.001298433963
 22
-11270.662630783059
 32
0.0
 13
36391.001298433963
 23
-11270.662630783059
 33
0.0
210
0.0
220
0.0
230
1.0
  0
SOLID
  5
32555
  8
D-STR-STRC_標識_
  6
CONTINUOUS
 62
     1
 10
-36389.969898849471
 20
-11270.510606331411
 30
0.0
 11
-36391.155403659701
 21
-11270.510606331411
 31
0.0
 12
-36391.001298433963
 22
-11270.662630783059
 32
0.0
 13
-36391.001298433963
 23
-11270.662630783059
 33
0.0
210
0.0
220
0.0
230
-1.0
  0
SOLID
  5
32556
  8
D-STR-STRC_標識_
  6
CONTINUOUS
 62
     1
 10
36386.868655247883
 20
-11270.662630783059
 30
0.0
 11
36386.879877069427
 21
-11270.674006198809
 31
0.0
 12
36388.32385029611
 22
-11270.674006198809
 32
0.0
 13
36388.32385029611
 23
-11270.674006198809
 33
0.0
210
0.0
220
0.0
230
1.0
  0
SOLID
  5
32557
  8
D-STR-STRC_標識_
  6
CONTINUOUS
 62
     1
 10
-36386.868655247883
 20
-11270.662630783059
 30
0.0
 11
-36388.269039773542
 21
-11270.662630783059
 31
0.0
 12
-36388.32385029611
 22
-11270.674006198809
 32
0.0
 13
-36388.32385029611
 23
-11270.674006198809
 33
0.0
210
0.0
220
0.0
230
-1.0
  0
SOLID
  5
32558
  8
D-STR-STRC_標識_
  6
CONTINUOUS
 62
     1
 10
36389.592486173096
 20
-11270.662630783059
 30
0.0
 11
36389.564245807429
 21
-11270.674006198809
 31
0.0
 12
36390.989767321727
 22
-11270.674006198809
 32
0.0
 13
36390.989767321727
 23
-11270.674006198809
 33
0.0
210
0.0
220
0.0
230
1.0
  0
SOLID
  5
32559
  8
D-STR-STRC_標識_
  6
CONTINUOUS
 62
     1
 10
-36389.592486173096
 20
-11270.662630783059
 30
0.0
 11
-36391.001298433963
 21
-11270.662630783059
 31
0.0
 12
-36390.989767321727
 22
-11270.674006198809
 32
0.0
 13
-36390.989767321727
 23
-11270.674006198809
 33
0.0
210
0.0
220
0.0
230
-1.0
  0
SOLID
  5
3255A
  8
D-STR-STRC_標識_
  6
CONTINUOUS
 62
     1
 10
36386.879877069427
 20
-11270.674006198809
 30
0.0
 11
36386.956324477353
 21
-11270.751499950169
 31
0.0
 12
36388.697240869202
 22
-11270.751499950169
 32
0.0
 13
36388.697240869202
 23
-11270.751499950169
 33
0.0
210
0.0
220
0.0
230
1.0
  0
SOLID
  5
3255B
  8
D-STR-STRC_標識_
  6
CONTINUOUS
 62
     1
 10
-36386.879877069427
 20
-11270.674006198809
 30
0.0
 11
-36388.32385029611
 21
-11270.674006198809
 31
0.0
 12
-36388.697240869202
 22
-11270.751499950169
 32
0.0
 13
-36388.697240869202
 23
-11270.751499950169
 33
0.0
210
0.0
220
0.0
230
-1.0
  0
SOLID
  5
3255C
  8
D-STR-STRC_標識_
  6
CONTINUOUS
 62
     1
 10
36389.564245807429
 20
-11270.674006198809
 30
0.0
 11
36389.154840852709
 21
-11270.751499950169
 31
0.0
 12
36390.91121290555
 22
-11270.751499950169
 32
0.0
 13
36390.91121290555
 23
-11270.751499950169
 33
0.0
210
0.0
220
0.0
230
1.0
  0
SOLID
  5
3255D
  8
D-STR-STRC_標識_
  6
CONTINUOUS
 62
     1
 10
-36389.564245807429
 20
-11270.674006198809
 30
0.0
 11
-36390.989767321727
 21
-11270.674006198809
 31
0.0
 12
-36390.91121290555
 22
-11270.751499950169
 32
0.0
 13
-36390.91121290555
 23
-11270.751499950169
 33
0.0
210
0.0
220
0.0
230
-1.0
  0
SOLID
  5
3255E
  8
D-STR-STRC_標識_
  6
CONTINUOUS
 62
     1
 10
36386.956324477353
 20
-11270.751499950169
 30
0.0
 11
36386.960113375302
 21
-11270.75534070715
 31
0.0
 12
36389.134549862669
 22
-11270.75534070715
 32
0.0
 13
36389.134549862669
 23
-11270.75534070715
 33
0.0
210
0.0
220
0.0
230
1.0
  0
SOLID
  5
3255F
  8
D-STR-STRC_標識_
  6
CONTINUOUS
 62
     1
 10
-36386.956324477353
 20
-11270.751499950169
 30
0.0
 11
-36388.697240869202
 21
-11270.751499950169
 31
0.0
 12
-36389.134549862669
 22
-11270.75534070715
 32
0.0
 13
-36389.134549862669
 23
-11270.75534070715
 33
0.0
210
0.0
220
0.0
230
-1.0
  0
SOLID
  5
32560
  8
D-STR-STRC_標識_
  6
CONTINUOUS
 62
     1
 10
36389.154840852709
 20
-11270.751499950169
 30
0.0
 11
36389.134549862669
 21
-11270.75534070715
 31
0.0
 12
36390.907319579739
 22
-11270.75534070715
 32
0.0
 13
36390.907319579739
 23
-11270.75534070715
 33
0.0
  0
SOLID
  5
32561
  8
D-STR-STRC_標識_
  6
CONTINUOUS
 62
     1
 10
-36389.154840852709
 20
-11270.751499950169
 30
0.0
 11
-36390.91121290555
 21
-11270.751499950169
 31
0.0
 12
-36390.907319579739
 22
-11270.75534070715
 32
0.0
 13
-36390.907319579739
 23
-11270.75534070715
 33
0.0
210
0.0
220
0.0
230
-1.0
  0
SOLID
  5
32562
  8
D-STR-STRC_標識_
  6
CONTINUOUS
 62
     1
 10
36386.960113375302
 20
-11270.75534070715
 30
0.0
 11
36387.00316811465
 21
-11270.79898474107
 31
0.0
 12
36390.863078185503
 22
-11270.79898474107
 32
0.0
 13
36390.863078185503
 23
-11270.79898474107
 33
0.0
210
0.0
220
0.0
230
1.0
  0
SOLID
  5
32563
  8
D-STR-STRC_標識_
  6
CONTINUOUS
 62
     1
 10
-36386.960113375302
 20
-11270.75534070715
 30
0.0
 11
-36390.907319579739
 21
-11270.75534070715
 31
0.0
 12
-36390.863078185503
 22
-11270.79898474107
 32
0.0
 13
-36390.863078185503
 23
-11270.79898474107
 33
0.0
210
0.0
220
0.0
230
-1.0
  0
SOLID
  5
32564
  8
D-STR-STRC_標識_
  6
CONTINUOUS
 62
     1
 10
36387.00316811465
 20
-11270.79898474107
 30
0.0
 11
36387.039847370477
 21
-11270.825041153879
 31
0.0
 12
36390.836665135932
 22
-11270.825041153879
 32
0.0
 13
36390.836665135932
 23
-11270.825041153879
 33
0.0
210
0.0
220
0.0
230
1.0
  0
SOLID
  5
32565
  8
D-STR-STRC_標識_
  6
CONTINUOUS
 62
     1
 10
-36387.00316811465
 20
-11270.79898474107
 30
0.0
 11
-36390.863078185503
 21
-11270.79898474107
 31
0.0
 12
-36390.836665135932
 22
-11270.825041153879
 32
0.0
 13
-36390.836665135932
 23
-11270.825041153879
 33
0.0
210
0.0
220
0.0
230
-1.0
  0
SOLID
  5
32566
  8
D-STR-STRC_標識_
  6
CONTINUOUS
 62
     1
 10
36387.039847370477
 20
-11270.825041153879
 30
0.0
 11
36387.426924518011
 21
-11271.10001516073
 31
0.0
 12
36390.438224819642
 22
-11271.10001516073
 32
0.0
 13
36390.438224819642
 23
-11271.10001516073
 33
0.0
210
0.0
220
0.0
230
1.0
  0
SOLID
  5
32567
  8
D-STR-STRC_標識_
  6
CONTINUOUS
 62
     1
 10
-36387.039847370477
 20
-11270.825041153879
 30
0.0
 11
-36390.836665135932
 21
-11270.825041153879
 31
0.0
 12
-36390.438224819642
 22
-11271.10001516073
 32
0.0
 13
-36390.438224819642
 23
-11271.10001516073
 33
0.0
210
0.0
220
0.0
230
-1.0
  0
SOLID
  5
32568
  8
D-STR-STRC_標識_
  6
CONTINUOUS
 62
     1
 10
36387.426924518011
 20
-11271.10001516073
 30
0.0
 11
36387.469629760402
 21
-11271.120283451861
 31
0.0
 12
36390.408855846123
 22
-11271.120283451861
 32
0.0
 13
36390.408855846123
 23
-11271.120283451861
 33
0.0
210
0.0
220
0.0
230
1.0
  0
SOLID
  5
32569
  8
D-STR-STRC_標識_
  6
CONTINUOUS
 62
     1
 10
-36387.426924518011
 20
-11271.10001516073
 30
0.0
 11
-36390.438224819642
 21
-11271.10001516073
 31
0.0
 12
-36390.408855846123
 22
-11271.120283451861
 32
0.0
 13
-36390.408855846123
 23
-11271.120283451861
 33
0.0
210
0.0
220
0.0
230
-1.0
  0
SOLID
  5
3256A
  8
D-STR-STRC_標識_
  6
CONTINUOUS
 62
     1
 10
36387.469629760402
 20
-11271.120283451861
 30
0.0
 11
36387.896516493238
 21
-11271.322887724689
 31
0.0
 12
36389.966545225507
 22
-11271.322887724689
 32
0.0
 13
36389.966545225507
 23
-11271.322887724689
 33
0.0
  0
SOLID
  5
3256B
  8
D-STR-STRC_標識_
  6
CONTINUOUS
 62
     1
 10
-36387.469629760402
 20
-11271.120283451861
 30
0.0
 11
-36390.408855846123
 21
-11271.120283451861
 31
0.0
 12
-36389.966545225507
 22
-11271.322887724689
 32
0.0
 13
-36389.966545225507
 23
-11271.322887724689
 33
0.0
210
0.0
220
0.0
230
-1.0
  0
SOLID
  5
3256C
  8
D-STR-STRC_標識_
  6
CONTINUOUS
 62
     1
 10
36387.896516493238
 20
-11271.322887724689
 30
0.0
 11
36387.946886892372
 21
-11271.336752052361
 31
0.0
 12
36389.936277653702
 22
-11271.336752052361
 32
0.0
 13
36389.936277653702
 23
-11271.336752052361
 33
0.0
210
0.0
220
0.0
230
1.0
  0
SOLID
  5
3256D
  8
D-STR-STRC_標識_
  6
CONTINUOUS
 62
     1
 10
-36387.896516493238
 20
-11271.322887724689
 30
0.0
 11
-36389.966545225507
 21
-11271.322887724689
 31
0.0
 12
-36389.936277653702
 22
-11271.336752052361
 32
0.0
 13
-36389.936277653702
 23
-11271.336752052361
 33
0.0
210
0.0
220
0.0
230
-1.0
  0
SOLID
  5
3256E
  8
D-STR-STRC_標識_
  6
CONTINUOUS
 62
     1
 10
36387.946886892372
 20
-11271.336752052361
 30
0.0
 11
36388.397675725777
 21
-11271.46083056287
 31
0.0
 12
36389.460292730277
 22
-11271.46083056287
 32
0.0
 13
36389.460292730277
 23
-11271.46083056287
 33
0.0
210
0.0
220
0.0
230
1.0
  0
SOLID
  5
3256F
  8
D-STR-STRC_標識_
  6
CONTINUOUS
 62
     1
 10
-36387.946886892372
 20
-11271.336752052361
 30
0.0
 11
-36389.936277653702
 21
-11271.336752052361
 31
0.0
 12
-36389.460292730277
 22
-11271.46083056287
 32
0.0
 13
-36389.460292730277
 23
-11271.46083056287
 33
0.0
210
0.0
220
0.0
230
-1.0
  0
SOLID
  5
32570
  8
D-STR-STRC_標識_
  6
CONTINUOUS
 62
     1
 10
36388.397675725777
 20
-11271.46083056287
 30
0.0
 11
36388.472288502271
 21
-11271.4678696665
 31
0.0
 12
36389.433289607892
 22
-11271.4678696665
 32
0.0
 13
36389.433289607892
 23
-11271.4678696665
 33
0.0
210
0.0
220
0.0
230
1.0
  0
SOLID
  5
32571
  8
D-STR-STRC_標識_
  6
CONTINUOUS
 62
     1
 10
-36388.397675725777
 20
-11271.46083056287
 30
0.0
 11
-36389.460292730277
 21
-11271.46083056287
 31
0.0
 12
-36389.433289607892
 22
-11271.4678696665
 32
0.0
 13
-36389.433289607892
 23
-11271.4678696665
 33
0.0
210
0.0
220
0.0
230
-1.0
  0
SOLID
  5
32572
  8
D-STR-STRC_標識_
  6
CONTINUOUS
 62
     1
 10
-36388.472288502271
 20
-11271.4678696665
 30
0.0
 11
-36389.433289607892
 21
-11271.4678696665
 31
0.0
 12
-36388.915174745947
 22
-11271.509652351921
 32
0.0
 13
-36388.915174745947
 23
-11271.509652351921
 33
0.0
210
0.0
220
0.0
230
-1.0
  0
LINE
  5
32573
  8
D-STR-STRC_標識_
  6
CONTINUOUS
 62
     1
 10
36388.955711328199
 20
-11265.54578969571
 30
0.0
 11
36388.437596466261
 21
-11265.58757238113
 31
0.0
  0
LINE
  5
32574
  8
D-STR-STRC_標識_
  6
CONTINUOUS
 62
     1
 10
36389.398597571882
 20
-11265.58757238113
 30
0.0
 11
36388.955711328199
 21
-11265.54578969571
 31
0.0
  0
LINE
  5
32575
  8
D-STR-STRC_標識_
  6
CONTINUOUS
 62
     1
 10
36388.437596466261
 20
-11265.58757238113
 30
0.0
 11
36388.41059334387
 21
-11265.59461148477
 31
0.0
  0
LINE
  5
32576
  8
D-STR-STRC_標識_
  6
CONTINUOUS
 62
     1
 10
36389.398597571882
 20
-11265.58757238113
 30
0.0
 11
36389.473210348369
 21
-11265.59461148477
 31
0.0
  0
LINE
  5
32577
  8
D-STR-STRC_標識_
  6
CONTINUOUS
 62
     1
 10
36388.41059334387
 20
-11265.59461148477
 30
0.0
 11
36387.934608420452
 21
-11265.71868999527
 31
0.0
  0
LINE
  5
32578
  8
D-STR-STRC_標識_
  6
CONTINUOUS
 62
     1
 10
36389.473210348369
 20
-11265.59461148477
 30
0.0
 11
36389.923999181781
 21
-11265.71868999527
 31
0.0
  0
LINE
  5
32579
  8
D-STR-STRC_標識_
  6
CONTINUOUS
 62
     1
 10
36387.934608420452
 20
-11265.71868999527
 30
0.0
 11
36387.90434084864
 21
-11265.73255432294
 31
0.0
  0
LINE
  5
3257A
  8
D-STR-STRC_標識_
  6
CONTINUOUS
 62
     1
 10
36389.923999181781
 20
-11265.71868999527
 30
0.0
 11
36389.974369580908
 21
-11265.73255432294
 31
0.0
  0
LINE
  5
3257B
  8
D-STR-STRC_標識_
  6
CONTINUOUS
 62
     1
 10
36387.90434084864
 20
-11265.73255432294
 30
0.0
 11
36387.462030228031
 21
-11265.935158595779
 31
0.0
  0
LINE
  5
3257C
  8
D-STR-STRC_標識_
  6
CONTINUOUS
 62
     1
 10
36389.974369580908
 20
-11265.73255432294
 30
0.0
 11
36390.401256313751
 21
-11265.935158595779
 31
0.0
  0
LINE
  5
3257D
  8
D-STR-STRC_標識_
  6
CONTINUOUS
 62
     1
 10
36387.462030228031
 20
-11265.935158595779
 30
0.0
 11
36387.432661254512
 21
-11265.9554268869
 31
0.0
  0
LINE
  5
3257E
  8
D-STR-STRC_標識_
  6
CONTINUOUS
 62
     1
 10
36390.401256313751
 20
-11265.935158595779
 30
0.0
 11
36390.443961556142
 21
-11265.9554268869
 31
0.0
  0
LINE
  5
3257F
  8
D-STR-STRC_標識_
  6
CONTINUOUS
 62
     1
 10
36387.432661254512
 20
-11265.9554268869
 30
0.0
 11
36387.034220938222
 21
-11266.230400893761
 31
0.0
  0
LINE
  5
32580
  8
D-STR-STRC_標識_
  6
CONTINUOUS
 62
     1
 10
36390.443961556142
 20
-11265.9554268869
 30
0.0
 11
36390.831038703669
 21
-11266.230400893761
 31
0.0
  0
LINE
  5
32581
  8
D-STR-STRC_標識_
  6
CONTINUOUS
 62
     1
 10
36387.034220938222
 20
-11266.230400893761
 30
0.0
 11
36387.007807888651
 21
-11266.25645730657
 31
0.0
  0
LINE
  5
32582
  8
D-STR-STRC_標識_
  6
CONTINUOUS
 62
     1
 10
36390.831038703669
 20
-11266.230400893761
 30
0.0
 11
36390.867717959503
 21
-11266.25645730657
 31
0.0
  0
LINE
  5
32583
  8
D-STR-STRC_標識_
  6
CONTINUOUS
 62
     1
 10
36387.007807888651
 20
-11266.25645730657
 30
0.0
 11
36386.963566487873
 21
-11266.30010134694
 31
0.0
  0
LINE
  5
32584
  8
D-STR-STRC_標識_
  6
CONTINUOUS
 62
     1
 10
36390.867717959503
 20
-11266.25645730657
 30
0.0
 11
36390.910772705211
 21
-11266.30010134694
 31
0.0
  0
LINE
  5
32585
  8
D-STR-STRC_標識_
  6
CONTINUOUS
 62
     1
 10
36386.963566487873
 20
-11266.30010134694
 30
0.0
 11
36386.959673162622
 21
-11266.30394210337
 31
0.0
  0
LINE
  5
32586
  8
D-STR-STRC_標識_
  6
CONTINUOUS
 62
     1
 10
36388.736336209033
 20
-11266.30010134694
 30
0.0
 11
36388.716045222063
 21
-11266.30394210337
 31
0.0
  0
LINE
  5
32587
  8
D-STR-STRC_標識_
  6
CONTINUOUS
 62
     1
 10
36388.736336209033
 20
-11266.30010134694
 30
0.0
 11
36389.17364520202
 21
-11266.30394210337
 31
0.0
  0
LINE
  5
32588
  8
D-STR-STRC_標識_
  6
CONTINUOUS
 62
     1
 10
36390.910772705211
 20
-11266.30010134694
 30
0.0
 11
36390.914561602622
 21
-11266.30394210337
 31
0.0
  0
LINE
  5
32589
  8
D-STR-STRC_標識_
  6
CONTINUOUS
 62
     1
 10
36386.959673162622
 20
-11266.30394210337
 30
0.0
 11
36386.881118745419
 21
-11266.381435855719
 31
0.0
  0
LINE
  5
3258A
  8
D-STR-STRC_標識_
  6
CONTINUOUS
 62
     1
 10
36388.716045222063
 20
-11266.30394210337
 30
0.0
 11
36388.306640264847
 21
-11266.381435855719
 31
0.0
  0
LINE
  5
3258B
  8
D-STR-STRC_標識_
  6
CONTINUOUS
 62
     1
 10
36389.17364520202
 20
-11266.30394210337
 30
0.0
 11
36389.547035782321
 21
-11266.381435855719
 31
0.0
  0
LINE
  5
3258C
  8
D-STR-STRC_標識_
  6
CONTINUOUS
 62
     1
 10
36390.914561602622
 20
-11266.30394210337
 30
0.0
 11
36390.99100901153
 21
-11266.381435855719
 31
0.0
  0
LINE
  5
3258D
  8
D-STR-STRC_標識_
  6
CONTINUOUS
 62
     1
 10
36386.881118745419
 20
-11266.381435855719
 30
0.0
 11
36386.869587634857
 21
-11266.39281126984
 31
0.0
  0
LINE
  5
3258E
  8
D-STR-STRC_標識_
  6
CONTINUOUS
 62
     1
 10
36388.306640264847
 20
-11266.381435855719
 30
0.0
 11
36388.278399903364
 21
-11266.39281126984
 31
0.0
  0
LINE
  5
3258F
  8
D-STR-STRC_標識_
  6
CONTINUOUS
 62
     1
 10
36389.547035782321
 20
-11266.381435855719
 30
0.0
 11
36389.601846297322
 21
-11266.39281126984
 31
0.0
  0
LINE
  5
32590
  8
D-STR-STRC_標識_
  6
CONTINUOUS
 62
     1
 10
36390.99100901153
 20
-11266.381435855719
 30
0.0
 11
36391.002230831458
 21
-11266.39281126984
 31
0.0
  0
LINE
  5
32591
  8
D-STR-STRC_標識_
  6
CONTINUOUS
 62
     1
 10
36386.869587634857
 20
-11266.39281126984
 30
0.0
 11
36386.715482407133
 21
-11266.54483572346
 31
0.0
  0
LINE
  5
32592
  8
D-STR-STRC_標識_
  6
CONTINUOUS
 62
     1
 10
36388.278399903364
 20
-11266.39281126984
 30
0.0
 11
36387.90098722346
 21
-11266.54483572346
 31
0.0
  0
LINE
  5
32593
  8
D-STR-STRC_標識_
  6
CONTINUOUS
 62
     1
 10
36389.601846297322
 20
-11266.39281126984
 30
0.0
 11
36389.960928506422
 21
-11266.54483572346
 31
0.0
  0
LINE
  5
32594
  8
D-STR-STRC_標識_
  6
CONTINUOUS
 62
     1
 10
36391.002230831458
 20
-11266.39281126984
 30
0.0
 11
36391.152202606187
 21
-11266.54483572346
 31
0.0
  0
LINE
  5
32595
  8
D-STR-STRC_標識_
  6
CONTINUOUS
 62
     1
 10
36386.715482407133
 20
-11266.54483572346
 30
0.0
 11
36386.696754414792
 21
-11266.563310844929
 31
0.0
  0
LINE
  5
32596
  8
D-STR-STRC_標識_
  6
CONTINUOUS
 62
     1
 10
36387.90098722346
 20
-11266.54483572346
 30
0.0
 11
36387.8727128069
 21
-11266.563310844929
 31
0.0
  0
LINE
  5
32597
  8
D-STR-STRC_標識_
  6
CONTINUOUS
 62
     1
 10
36389.960928506422
 20
-11266.54483572346
 30
0.0
 11
36390.004566797987
 21
-11266.563310844929
 31
0.0
  0
LINE
  5
32598
  8
D-STR-STRC_標識_
  6
CONTINUOUS
 62
     1
 10
36391.152202606187
 20
-11266.54483572346
 30
0.0
 11
36391.170428271143
 21
-11266.563310844929
 31
0.0
  0
LINE
  5
32599
  8
D-STR-STRC_標識_
  6
CONTINUOUS
 62
     1
 10
36386.696754414792
 20
-11266.563310844929
 30
0.0
 11
36386.664179319821
 21
-11266.59544610139
 31
0.0
  0
LINE
  5
3259A
  8
D-STR-STRC_標識_
  6
CONTINUOUS
 62
     1
 10
36387.8727128069
 20
-11266.563310844929
 30
0.0
 11
36387.823532852723
 21
-11266.59544610139
 31
0.0
  0
LINE
  5
3259B
  8
D-STR-STRC_標識_
  6
CONTINUOUS
 62
     1
 10
36390.004566797987
 20
-11266.563310844929
 30
0.0
 11
36390.051909466623
 21
-11266.59544610139
 31
0.0
  0
LINE
  5
3259C
  8
D-STR-STRC_標識_
  6
CONTINUOUS
 62
     1
 10
36391.170428271143
 20
-11266.563310844929
 30
0.0
 11
36391.202129627913
 21
-11266.59544610139
 31
0.0
  0
LINE
  5
3259D
  8
D-STR-STRC_標識_
  6
CONTINUOUS
 62
     1
 10
36386.664179319821
 20
-11266.59544610139
 30
0.0
 11
36386.642119843113
 21
-11266.626498924959
 31
0.0
  0
LINE
  5
3259E
  8
D-STR-STRC_標識_
  6
CONTINUOUS
 62
     1
 10
36387.823532852723
 20
-11266.59544610139
 30
0.0
 11
36387.776009459143
 21
-11266.626498924959
 31
0.0
  0
LINE
  5
3259F
  8
D-STR-STRC_標識_
  6
CONTINUOUS
 62
     1
 10
36390.051909466623
 20
-11266.59544610139
 30
0.0
 11
36390.097657461163
 21
-11266.626498924959
 31
0.0
  0
LINE
  5
325A0
  8
D-STR-STRC_標識_
  6
CONTINUOUS
 62
     1
 10
36391.202129627913
 20
-11266.59544610139
 30
0.0
 11
36391.232763167143
 21
-11266.626498924959
 31
0.0
  0
LINE
  5
325A1
  8
D-STR-STRC_標識_
  6
CONTINUOUS
 62
     1
 10
36386.642119843113
 20
-11266.626498924959
 30
0.0
 11
36386.530195570092
 21
-11266.78405319286
 31
0.0
  0
LINE
  5
325A2
  8
D-STR-STRC_標識_
  6
CONTINUOUS
 62
     1
 10
36387.776009459143
 20
-11266.626498924959
 30
0.0
 11
36387.534887634421
 21
-11266.78405319286
 31
0.0
  0
LINE
  5
325A3
  8
D-STR-STRC_標識_
  6
CONTINUOUS
 62
     1
 10
36390.097657461163
 20
-11266.626498924959
 30
0.0
 11
36390.329771354758
 21
-11266.78405319286
 31
0.0
  0
LINE
  5
325A4
  8
D-STR-STRC_標識_
  6
CONTINUOUS
 62
     1
 10
36391.232763167143
 20
-11266.626498924959
 30
0.0
 11
36391.341495457949
 21
-11266.78405319286
 31
0.0
  0
LINE
  5
325A5
  8
D-STR-STRC_標識_
  6
CONTINUOUS
 62
     1
 10
36386.530195570092
 20
-11266.78405319286
 30
0.0
 11
36386.512529408406
 21
-11266.80892160696
 31
0.0
  0
LINE
  5
325A6
  8
D-STR-STRC_標識_
  6
CONTINUOUS
 62
     1
 10
36387.534887634421
 20
-11266.78405319286
 30
0.0
 11
36387.559420268059
 21
-11266.80892160696
 31
0.0
  0
LINE
  5
325A7
  8
D-STR-STRC_標識_
  6
CONTINUOUS
 62
     1
 10
36390.329771354758
 20
-11266.78405319286
 30
0.0
 11
36390.366408283087
 21
-11266.80892160696
 31
0.0
  0
LINE
  5
325A8
  8
D-STR-STRC_標識_
  6
CONTINUOUS
 62
     1
 10
36391.341495457949
 20
-11266.78405319286
 30
0.0
 11
36391.358657796161
 21
-11266.80892160696
 31
0.0
  0
LINE
  5
325A9
  8
D-STR-STRC_標識_
  6
CONTINUOUS
 62
     1
 10
36386.512529408406
 20
-11266.80892160696
 30
0.0
 11
36386.363148900156
 21
-11267.01920250476
 31
0.0
  0
LINE
  5
325AA
  8
D-STR-STRC_標識_
  6
CONTINUOUS
 62
     1
 10
36387.559420268059
 20
-11266.80892160696
 30
0.0
 11
36387.76686189296
 21
-11267.01920250476
 31
0.0
  0
LINE
  5
325AB
  8
D-STR-STRC_標識_
  6
CONTINUOUS
 62
     1
 10
36390.366408283087
 20
-11266.80892160696
 30
0.0
 11
36390.573849907989
 21
-11267.01920250476
 31
0.0
  0
LINE
  5
325AC
  8
D-STR-STRC_標識_
  6
CONTINUOUS
 62
     1
 10
36391.358657796161
 20
-11266.80892160696
 30
0.0
 11
36391.503778103201
 21
-11267.01920250476
 31
0.0
  0
LINE
  5
325AD
  8
D-STR-STRC_標識_
  6
CONTINUOUS
 62
     1
 10
36386.363148900156
 20
-11267.01920250476
 30
0.0
 11
36386.346487415263
 21
-11267.054308214771
 31
0.0
  0
LINE
  5
325AE
  8
D-STR-STRC_標識_
  6
CONTINUOUS
 62
     1
 10
36387.76686189296
 20
-11267.01920250476
 30
0.0
 11
36387.801493595623
 21
-11267.054308214771
 31
0.0
  0
LINE
  5
325AF
  8
D-STR-STRC_標識_
  6
CONTINUOUS
 62
     1
 10
36390.573849907989
 20
-11267.01920250476
 30
0.0
 11
36390.60848161066
 21
-11267.054308214771
 31
0.0
  0
LINE
  5
325B0
  8
D-STR-STRC_標識_
  6
CONTINUOUS
 62
     1
 10
36391.503778103201
 20
-11267.01920250476
 30
0.0
 11
36391.528005465123
 21
-11267.054308214771
 31
0.0
  0
LINE
  5
325B1
  8
D-STR-STRC_標識_
  6
CONTINUOUS
 62
     1
 10
36386.346487415263
 20
-11267.054308214771
 30
0.0
 11
36386.32309660998
 21
-11267.103592587249
 31
0.0
  0
LINE
  5
325B2
  8
D-STR-STRC_標識_
  6
CONTINUOUS
 62
     1
 10
36387.801493595623
 20
-11267.054308214771
 30
0.0
 11
36387.850112516382
 21
-11267.103592587249
 31
0.0
  0
LINE
  5
325B3
  8
D-STR-STRC_標識_
  6
CONTINUOUS
 62
     1
 10
36390.60848161066
 20
-11267.054308214771
 30
0.0
 11
36390.657100531418
 21
-11267.103592587249
 31
0.0
  0
LINE
  5
325B4
  8
D-STR-STRC_標識_
  6
CONTINUOUS
 62
     1
 10
36391.528005465123
 20
-11267.054308214771
 30
0.0
 11
36391.550580605712
 21
-11267.103592587249
 31
0.0
  0
LINE
  5
325B5
  8
D-STR-STRC_標識_
  6
CONTINUOUS
 62
     1
 10
36386.32309660998
 20
-11267.103592587249
 30
0.0
 11
36386.315189721521
 21
-11267.1202523829
 31
0.0
  0
LINE
  5
325B6
  8
D-STR-STRC_標識_
  6
CONTINUOUS
 62
     1
 10
36387.850112516382
 20
-11267.103592587249
 30
0.0
 11
36387.866547366692
 21
-11267.1202523829
 31
0.0
  0
LINE
  5
325B7
  8
D-STR-STRC_標識_
  6
CONTINUOUS
 62
     1
 10
36390.657100531418
 20
-11267.103592587249
 30
0.0
 11
36390.673535381728
 21
-11267.1202523829
 31
0.0
  0
LINE
  5
325B8
  8
D-STR-STRC_標識_
  6
CONTINUOUS
 62
     1
 10
36391.550580605712
 20
-11267.103592587249
 30
0.0
 11
36391.558211771742
 21
-11267.1202523829
 31
0.0
  0
LINE
  5
325B9
  8
D-STR-STRC_標識_
  6
CONTINUOUS
 62
     1
 10
36386.315189721521
 20
-11267.1202523829
 30
0.0
 11
36386.150901842062
 21
-11267.466406563781
 31
0.0
  0
LINE
  5
325BA
  8
D-STR-STRC_標識_
  6
CONTINUOUS
 62
     1
 10
36387.199762708893
 20
-11267.1202523829
 30
0.0
 11
36386.966802746487
 21
-11267.466406563781
 31
0.0
  0
LINE
  5
325BB
  8
D-STR-STRC_標識_
  6
CONTINUOUS
 62
     1
 10
36387.227409514933
 20
-11267.1202523829
 30
0.0
 11
36387.568889822069
 21
-11267.466406563781
 31
0.0
  0
LINE
  5
325BC
  8
D-STR-STRC_標識_
  6
CONTINUOUS
 62
     1
 10
36387.866547366692
 20
-11267.1202523829
 30
0.0
 11
36388.208027674693
 21
-11267.466406563781
 31
0.0
  0
LINE
  5
325BD
  8
D-STR-STRC_標識_
  6
CONTINUOUS
 62
     1
 10
36390.673535381728
 20
-11267.1202523829
 30
0.0
 11
36390.90168672095
 21
-11267.466406563781
 31
0.0
  0
LINE
  5
325BE
  8
D-STR-STRC_標識_
  6
CONTINUOUS
 62
     1
 10
36391.558211771742
 20
-11267.1202523829
 30
0.0
 11
36391.716770741019
 21
-11267.466406563781
 31
0.0
  0
LINE
  5
325BF
  8
D-STR-STRC_標識_
  6
CONTINUOUS
 62
     1
 10
36386.150901842062
 20
-11267.466406563781
 30
0.0
 11
36386.141887800091
 21
-11267.485399129309
 31
0.0
  0
LINE
  5
325C0
  8
D-STR-STRC_標識_
  6
CONTINUOUS
 62
     1
 10
36386.966802746487
 20
-11267.466406563781
 30
0.0
 11
36386.958850664989
 21
-11267.485399129309
 31
0.0
  0
LINE
  5
325C1
  8
D-STR-STRC_標識_
  6
CONTINUOUS
 62
     1
 10
36387.568889822069
 20
-11267.466406563781
 30
0.0
 11
36387.587625944492
 21
-11267.485399129309
 31
0.0
  0
LINE
  5
325C2
  8
D-STR-STRC_標識_
  6
CONTINUOUS
 62
     1
 10
36388.208027674693
 20
-11267.466406563781
 30
0.0
 11
36388.22676379716
 21
-11267.485399129309
 31
0.0
  0
LINE
  5
325C3
  8
D-STR-STRC_標識_
  6
CONTINUOUS
 62
     1
 10
36390.90168672095
 20
-11267.466406563781
 30
0.0
 11
36390.914204782261
 21
-11267.485399129309
 31
0.0
  0
LINE
  5
325C4
  8
D-STR-STRC_標識_
  6
CONTINUOUS
 62
     1
 10
36391.716770741019
 20
-11267.466406563781
 30
0.0
 11
36391.725470452831
 21
-11267.485399129309
 31
0.0
  0
LINE
  5
325C5
  8
D-STR-STRC_標識_
  6
CONTINUOUS
 62
     1
 10
36386.141887800091
 20
-11267.485399129309
 30
0.0
 11
36386.140276336198
 21
-11267.48879447999
 31
0.0
  0
LINE
  5
325C6
  8
D-STR-STRC_標識_
  6
CONTINUOUS
 62
     1
 10
36386.958850664989
 20
-11267.485399129309
 30
0.0
 11
36386.957429050548
 21
-11267.48879447999
 31
0.0
  0
LINE
  5
325C7
  8
D-STR-STRC_標識_
  6
CONTINUOUS
 62
     1
 10
36387.587625944492
 20
-11267.485399129309
 30
0.0
 11
36387.590975450163
 21
-11267.48879447999
 31
0.0
  0
LINE
  5
325C8
  8
D-STR-STRC_標識_
  6
CONTINUOUS
 62
     1
 10
36388.22676379716
 20
-11267.485399129309
 30
0.0
 11
36388.230113302838
 21
-11267.48879447999
 31
0.0
  0
LINE
  5
325C9
  8
D-STR-STRC_標識_
  6
CONTINUOUS
 62
     1
 10
36390.914204782261
 20
-11267.485399129309
 30
0.0
 11
36390.91558814935
 21
-11267.48879447999
 31
0.0
  0
LINE
  5
325CA
  8
D-STR-STRC_標識_
  6
CONTINUOUS
 62
     1
 10
36391.725470452831
 20
-11267.485399129309
 30
0.0
 11
36391.727025723092
 21
-11267.48879447999
 31
0.0
  0
LINE
  5
325CB
  8
D-STR-STRC_標識_
  6
CONTINUOUS
 62
     1
 10
36386.140276336198
 20
-11267.48879447999
 30
0.0
 11
36386.129791627529
 21
-11267.5268864072
 31
0.0
  0
LINE
  5
325CC
  8
D-STR-STRC_標識_
  6
CONTINUOUS
 62
     1
 10
36386.957429050548
 20
-11267.48879447999
 30
0.0
 11
36386.941480172587
 21
-11267.5268864072
 31
0.0
  0
LINE
  5
325CD
  8
D-STR-STRC_標識_
  6
CONTINUOUS
 62
     1
 10
36387.590975450163
 20
-11267.48879447999
 30
0.0
 11
36387.628553049173
 21
-11267.5268864072
 31
0.0
  0
LINE
  5
325CE
  8
D-STR-STRC_標識_
  6
CONTINUOUS
 62
     1
 10
36388.230113302838
 20
-11267.48879447999
 30
0.0
 11
36388.267690901943
 21
-11267.5268864072
 31
0.0
  0
LINE
  5
325CF
  8
D-STR-STRC_標識_
  6
CONTINUOUS
 62
     1
 10
36390.91558814935
 20
-11267.48879447999
 30
0.0
 11
36390.931107936078
 21
-11267.5268864072
 31
0.0
  0
LINE
  5
325D0
  8
D-STR-STRC_標識_
  6
CONTINUOUS
 62
     1
 10
36391.727025723092
 20
-11267.48879447999
 30
0.0
 11
36391.744474065621
 21
-11267.5268864072
 31
0.0
  0
LINE
  5
325D1
  8
D-STR-STRC_標識_
  6
CONTINUOUS
 62
     1
 10
36386.129791627529
 20
-11267.5268864072
 30
0.0
 11
36386.035405245777
 21
-11267.869800959799
 31
0.0
  0
LINE
  5
325D2
  8
D-STR-STRC_標識_
  6
CONTINUOUS
 62
     1
 10
36386.941480172587
 20
-11267.5268864072
 30
0.0
 11
36386.797903757608
 21
-11267.869800959799
 31
0.0
  0
LINE
  5
325D3
  8
D-STR-STRC_標識_
  6
CONTINUOUS
 62
     1
 10
36387.628553049173
 20
-11267.5268864072
 30
0.0
 11
36387.966837470427
 21
-11267.869800959799
 31
0.0
  0
LINE
  5
325D4
  8
D-STR-STRC_標識_
  6
CONTINUOUS
 62
     1
 10
36388.267690901943
 20
-11267.5268864072
 30
0.0
 11
36388.605975324048
 21
-11267.869800959799
 31
0.0
  0
LINE
  5
325D5
  8
D-STR-STRC_標識_
  6
CONTINUOUS
 62
     1
 10
36390.931107936078
 20
-11267.5268864072
 30
0.0
 11
36391.07082154767
 21
-11267.869800959799
 31
0.0
  0
LINE
  5
325D6
  8
D-STR-STRC_標識_
  6
CONTINUOUS
 62
     1
 10
36391.744474065621
 20
-11267.5268864072
 30
0.0
 11
36391.833864138338
 21
-11267.869800959799
 31
0.0
  0
LINE
  5
325D7
  8
D-STR-STRC_標識_
  6
CONTINUOUS
 62
     1
 10
36386.035405245777
 20
-11267.869800959799
 30
0.0
 11
36386.02973538472
 21
-11267.89040009531
 31
0.0
  0
LINE
  5
325D8
  8
D-STR-STRC_標識_
  6
CONTINUOUS
 62
     1
 10
36386.797903757608
 20
-11267.869800959799
 30
0.0
 11
36386.793713853047
 21
-11267.89040009531
 31
0.0
  0
LINE
  5
325D9
  8
D-STR-STRC_標識_
  6
CONTINUOUS
 62
     1
 10
36387.966837470427
 20
-11267.869800959799
 30
0.0
 11
36387.98715847046
 21
-11267.89040009531
 31
0.0
  0
LINE
  5
325DA
  8
D-STR-STRC_標識_
  6
CONTINUOUS
 62
     1
 10
36388.605975324048
 20
-11267.869800959799
 30
0.0
 11
36388.626296324117
 21
-11267.89040009531
 31
0.0
  0
LINE
  5
325DB
  8
D-STR-STRC_標識_
  6
CONTINUOUS
 62
     1
 10
36391.07082154767
 20
-11267.869800959799
 30
0.0
 11
36391.07921424957
 21
-11267.89040009531
 31
0.0
  0
LINE
  5
325DC
  8
D-STR-STRC_標識_
  6
CONTINUOUS
 62
     1
 10
36391.833864138338
 20
-11267.869800959799
 30
0.0
 11
36391.839233867351
 21
-11267.89040009531
 31
0.0
  0
LINE
  5
325DD
  8
D-STR-STRC_標識_
  6
CONTINUOUS
 62
     1
 10
36386.02973538472
 20
-11267.89040009531
 30
0.0
 11
36386.002333498021
 21
-11267.98995371252
 31
0.0
  0
LINE
  5
325DE
  8
D-STR-STRC_標識_
  6
CONTINUOUS
 62
     1
 10
36386.793713853047
 20
-11267.89040009531
 30
0.0
 11
36386.773464452119
 21
-11267.98995371252
 31
0.0
  0
LINE
  5
325DF
  8
D-STR-STRC_標識_
  6
CONTINUOUS
 62
     1
 10
36387.98715847046
 20
-11267.89040009531
 30
0.0
 11
36388.085367885971
 21
-11267.98995371252
 31
0.0
  0
LINE
  5
325E0
  8
D-STR-STRC_標識_
  6
CONTINUOUS
 62
     1
 10
36388.626296324117
 20
-11267.89040009531
 30
0.0
 11
36388.72450573989
 21
-11267.98995371252
 31
0.0
  0
LINE
  5
325E1
  8
D-STR-STRC_標識_
  6
CONTINUOUS
 62
     1
 10
36391.07921424957
 20
-11267.89040009531
 30
0.0
 11
36391.098467955657
 21
-11267.98995371252
 31
0.0
  0
LINE
  5
325E2
  8
D-STR-STRC_標識_
  6
CONTINUOUS
 62
     1
 10
36391.839233867351
 20
-11267.89040009531
 30
0.0
 11
36391.865185245071
 21
-11267.98995371252
 31
0.0
  0
LINE
  5
325E3
  8
D-STR-STRC_標識_
  6
CONTINUOUS
 62
     1
 10
36386.002333498021
 20
-11267.98995371252
 30
0.0
 11
36385.998567303512
 21
-11268.02987445301
 31
0.0
  0
LINE
  5
325E4
  8
D-STR-STRC_標識_
  6
CONTINUOUS
 62
     1
 10
36386.773464452119
 20
-11267.98995371252
 30
0.0
 11
36386.76534449523
 21
-11268.02987445301
 31
0.0
  0
LINE
  5
325E5
  8
D-STR-STRC_標識_
  6
CONTINUOUS
 62
     1
 10
36388.085367885971
 20
-11267.98995371252
 30
0.0
 11
36388.124749605093
 21
-11268.02987445301
 31
0.0
  0
LINE
  5
325E6
  8
D-STR-STRC_標識_
  6
CONTINUOUS
 62
     1
 10
36388.72450573989
 20
-11267.98995371252
 30
0.0
 11
36388.763887459099
 21
-11268.02987445301
 31
0.0
  0
LINE
  5
325E7
  8
D-STR-STRC_標識_
  6
CONTINUOUS
 62
     1
 10
36391.098467955657
 20
-11267.98995371252
 30
0.0
 11
36391.106188641526
 21
-11268.02987445301
 31
0.0
  0
LINE
  5
325E8
  8
D-STR-STRC_標識_
  6
CONTINUOUS
 62
     1
 10
36391.865185245071
 20
-11267.98995371252
 30
0.0
 11
36391.87559167976
 21
-11268.02987445301
 31
0.0
  0
LINE
  5
325E9
  8
D-STR-STRC_標識_
  6
CONTINUOUS
 62
     1
 10
36385.998567303512
 20
-11268.02987445301
 30
0.0
 11
36385.973238687409
 21
-11268.298351587329
 31
0.0
  0
LINE
  5
325EA
  8
D-STR-STRC_標識_
  6
CONTINUOUS
 62
     1
 10
36386.76534449523
 20
-11268.02987445301
 30
0.0
 11
36386.710735719702
 21
-11268.298351587329
 31
0.0
  0
LINE
  5
325EB
  8
D-STR-STRC_標識_
  6
CONTINUOUS
 62
     1
 10
36388.124749605093
 20
-11268.02987445301
 30
0.0
 11
36388.389601683579
 21
-11268.298351587329
 31
0.0
  0
LINE
  5
325EC
  8
D-STR-STRC_標識_
  6
CONTINUOUS
 62
     1
 10
36388.763887459099
 20
-11268.02987445301
 30
0.0
 11
36389.028739538262
 21
-11268.298351587329
 31
0.0
  0
LINE
  5
325ED
  8
D-STR-STRC_標識_
  6
CONTINUOUS
 62
     1
 10
36391.106188641526
 20
-11268.02987445301
 30
0.0
 11
36391.15811221781
 21
-11268.298351587329
 31
0.0
  0
LINE
  5
325EE
  8
D-STR-STRC_標識_
  6
CONTINUOUS
 62
     1
 10
36391.87559167976
 20
-11268.02987445301
 30
0.0
 11
36391.897242661951
 21
-11268.298351587329
 31
0.0
  0
LINE
  5
325EF
  8
D-STR-STRC_標識_
  6
CONTINUOUS
 62
     1
 10
36385.973238687409
 20
-11268.298351587329
 30
0.0
 11
36385.971218067483
 21
-11268.319769664109
 31
0.0
  0
LINE
  5
325F0
  8
D-STR-STRC_標識_
  6
CONTINUOUS
 62
     1
 10
36386.710735719702
 20
-11268.298351587329
 30
0.0
 11
36386.710632668553
 21
-11268.319769664109
 31
0.0
  0
LINE
  5
325F1
  8
D-STR-STRC_標識_
  6
CONTINUOUS
 62
     1
 10
36388.389601683579
 20
-11268.298351587329
 30
0.0
 11
36388.410730567302
 21
-11268.319769664109
 31
0.0
  0
LINE
  5
325F2
  8
D-STR-STRC_標識_
  6
CONTINUOUS
 62
     1
 10
36389.028739538262
 20
-11268.298351587329
 30
0.0
 11
36389.049868422037
 21
-11268.319769664109
 31
0.0
  0
LINE
  5
325F3
  8
D-STR-STRC_標識_
  6
CONTINUOUS
 62
     1
 10
36391.15811221781
 20
-11268.298351587329
 30
0.0
 11
36391.162254481722
 21
-11268.319769664109
 31
0.0
  0
LINE
  5
325F4
  8
D-STR-STRC_標識_
  6
CONTINUOUS
 62
     1
 10
36391.897242661951
 20
-11268.298351587329
 30
0.0
 11
36391.898969894319
 21
-11268.319769664109
 31
0.0
  0
LINE
  5
325F5
  8
D-STR-STRC_標識_
  6
CONTINUOUS
 62
     1
 10
36385.971218067483
 20
-11268.319769664109
 30
0.0
 11
36385.953511708969
 21
-11268.507452732691
 31
0.0
  0
LINE
  5
325F6
  8
D-STR-STRC_標識_
  6
CONTINUOUS
 62
     1
 10
36386.710632668553
 20
-11268.319769664109
 30
0.0
 11
36386.709729648268
 21
-11268.507452732691
 31
0.0
  0
LINE
  5
325F7
  8
D-STR-STRC_標識_
  6
CONTINUOUS
 62
     1
 10
36388.410730567302
 20
-11268.319769664109
 30
0.0
 11
36388.595879484878
 21
-11268.507452732691
 31
0.0
  0
LINE
  5
325F8
  8
D-STR-STRC_標識_
  6
CONTINUOUS
 62
     1
 10
36389.049868422037
 20
-11268.319769664109
 30
0.0
 11
36389.235017340077
 21
-11268.507452732691
 31
0.0
  0
LINE
  5
325F9
  8
D-STR-STRC_標識_
  6
CONTINUOUS
 62
     1
 10
36391.162254481722
 20
-11268.319769664109
 30
0.0
 11
36391.161351461669
 21
-11268.507452732691
 31
0.0
  0
LINE
  5
325FA
  8
D-STR-STRC_標識_
  6
CONTINUOUS
 62
     1
 10
36391.898969894319
 20
-11268.319769664109
 30
0.0
 11
36391.91410534631
 21
-11268.507452732691
 31
0.0
  0
LINE
  5
325FB
  8
D-STR-STRC_標識_
  6
CONTINUOUS
 62
     1
 10
36385.953511708969
 20
-11268.507452732691
 30
0.0
 11
36385.956780727851
 21
-11268.54798931494
 31
0.0
  0
LINE
  5
325FC
  8
D-STR-STRC_標識_
  6
CONTINUOUS
 62
     1
 10
36386.709729648268
 20
-11268.507452732691
 30
0.0
 11
36386.709534610127
 21
-11268.54798931494
 31
0.0
  0
LINE
  5
325FD
  8
D-STR-STRC_標識_
  6
CONTINUOUS
 62
     1
 10
36388.595879484878
 20
-11268.507452732691
 30
0.0
 11
36388.635868730489
 21
-11268.54798931494
 31
0.0
  0
LINE
  5
325FE
  8
D-STR-STRC_標識_
  6
CONTINUOUS
 62
     1
 10
36389.235017340077
 20
-11268.507452732691
 30
0.0
 11
36389.275006585784
 21
-11268.54798931494
 31
0.0
  0
LINE
  5
325FF
  8
D-STR-STRC_標識_
  6
CONTINUOUS
 62
     1
 10
36391.161351461669
 20
-11268.507452732691
 30
0.0
 11
36391.161156423586
 21
-11268.54798931494
 31
0.0
  0
LINE
  5
32600
  8
D-STR-STRC_標識_
  6
CONTINUOUS
 62
     1
 10
36391.91410534631
 20
-11268.507452732691
 30
0.0
 11
36391.917374365177
 21
-11268.54798931494
 31
0.0
  0
LINE
  5
32601
  8
D-STR-STRC_標識_
  6
CONTINUOUS
 62
     1
 10
36385.956780727851
 20
-11268.54798931494
 30
0.0
 11
36385.971916179922
 21
-11268.73567238471
 31
0.0
  0
LINE
  5
32602
  8
D-STR-STRC_標識_
  6
CONTINUOUS
 62
     1
 10
36386.709534610127
 20
-11268.54798931494
 30
0.0
 11
36386.708631589849
 21
-11268.73567238471
 31
0.0
  0
LINE
  5
32603
  8
D-STR-STRC_標識_
  6
CONTINUOUS
 62
     1
 10
36388.635868730489
 20
-11268.54798931494
 30
0.0
 11
36388.821017649228
 21
-11268.73567238471
 31
0.0
  0
LINE
  5
32604
  8
D-STR-STRC_標識_
  6
CONTINUOUS
 62
     1
 10
36389.275006585784
 20
-11268.54798931494
 30
0.0
 11
36389.460155505003
 21
-11268.73567238471
 31
0.0
  0
LINE
  5
32605
  8
D-STR-STRC_標識_
  6
CONTINUOUS
 62
     1
 10
36391.161156423586
 20
-11268.54798931494
 30
0.0
 11
36391.160253403526
 21
-11268.73567238471
 31
0.0
  0
LINE
  5
32606
  8
D-STR-STRC_標識_
  6
CONTINUOUS
 62
     1
 10
36391.917374365177
 20
-11268.54798931494
 30
0.0
 11
36391.899668006547
 21
-11268.73567238471
 31
0.0
  0
LINE
  5
32607
  8
D-STR-STRC_標識_
  6
CONTINUOUS
 62
     1
 10
36385.971916179922
 20
-11268.73567238471
 30
0.0
 11
36385.973643412261
 21
-11268.757090461009
 31
0.0
  0
LINE
  5
32608
  8
D-STR-STRC_標識_
  6
CONTINUOUS
 62
     1
 10
36386.708631589849
 20
-11268.73567238471
 30
0.0
 11
36386.712773853636
 21
-11268.757090461009
 31
0.0
  0
LINE
  5
32609
  8
D-STR-STRC_標識_
  6
CONTINUOUS
 62
     1
 10
36388.821017649228
 20
-11268.73567238471
 30
0.0
 11
36388.842146532479
 21
-11268.757090461009
 31
0.0
  0
LINE
  5
3260A
  8
D-STR-STRC_標識_
  6
CONTINUOUS
 62
     1
 10
36389.460155505003
 20
-11268.73567238471
 30
0.0
 11
36389.48128438829
 21
-11268.757090461009
 31
0.0
  0
LINE
  5
3260B
  8
D-STR-STRC_標識_
  6
CONTINUOUS
 62
     1
 10
36391.160253403526
 20
-11268.73567238471
 30
0.0
 11
36391.160150352407
 21
-11268.757090461009
 31
0.0
  0
LINE
  5
3260C
  8
D-STR-STRC_標識_
  6
CONTINUOUS
 62
     1
 10
36391.899668006547
 20
-11268.73567238471
 30
0.0
 11
36391.897647386679
 21
-11268.757090461009
 31
0.0
  0
LINE
  5
3260D
  8
D-STR-STRC_標識_
  6
CONTINUOUS
 62
     1
 10
36385.973643412261
 20
-11268.757090461009
 30
0.0
 11
36385.995294394394
 21
-11269.02556759463
 31
0.0
  0
LINE
  5
3260E
  8
D-STR-STRC_標識_
  6
CONTINUOUS
 62
     1
 10
36386.712773853636
 20
-11268.757090461009
 30
0.0
 11
36386.764697429433
 21
-11269.02556759463
 31
0.0
  0
LINE
  5
3260F
  8
D-STR-STRC_標識_
  6
CONTINUOUS
 62
     1
 10
36388.842146532479
 20
-11268.757090461009
 30
0.0
 11
36389.106998610281
 21
-11269.02556759463
 31
0.0
  0
LINE
  5
32610
  8
D-STR-STRC_標識_
  6
CONTINUOUS
 62
     1
 10
36389.48128438829
 20
-11268.757090461009
 30
0.0
 11
36389.746136466762
 21
-11269.02556759463
 31
0.0
  0
LINE
  5
32611
  8
D-STR-STRC_標識_
  6
CONTINUOUS
 62
     1
 10
36391.160150352407
 20
-11268.757090461009
 30
0.0
 11
36391.105541577374
 21
-11269.02556759463
 31
0.0
  0
LINE
  5
32612
  8
D-STR-STRC_標識_
  6
CONTINUOUS
 62
     1
 10
36391.897647386679
 20
-11268.757090461009
 30
0.0
 11
36391.872318770642
 21
-11269.02556759463
 31
0.0
  0
LINE
  5
32613
  8
D-STR-STRC_標識_
  6
CONTINUOUS
 62
     1
 10
36385.995294394394
 20
-11269.02556759463
 30
0.0
 11
36386.005700829082
 21
-11269.065488335111
 31
0.0
  0
LINE
  5
32614
  8
D-STR-STRC_標識_
  6
CONTINUOUS
 62
     1
 10
36386.764697429433
 20
-11269.02556759463
 30
0.0
 11
36386.772418115237
 21
-11269.065488335111
 31
0.0
  0
LINE
  5
32615
  8
D-STR-STRC_標識_
  6
CONTINUOUS
 62
     1
 10
36389.106998610281
 20
-11269.02556759463
 30
0.0
 11
36389.146380329403
 21
-11269.065488335111
 31
0.0
  0
LINE
  5
32616
  8
D-STR-STRC_標識_
  6
CONTINUOUS
 62
     1
 10
36389.746136466762
 20
-11269.02556759463
 30
0.0
 11
36389.785518185978
 21
-11269.065488335111
 31
0.0
  0
LINE
  5
32617
  8
D-STR-STRC_標識_
  6
CONTINUOUS
 62
     1
 10
36391.105541577374
 20
-11269.02556759463
 30
0.0
 11
36391.097421620543
 21
-11269.065488335111
 31
0.0
  0
LINE
  5
32618
  8
D-STR-STRC_標識_
  6
CONTINUOUS
 62
     1
 10
36391.872318770642
 20
-11269.02556759463
 30
0.0
 11
36391.868552576132
 21
-11269.065488335111
 31
0.0
  0
LINE
  5
32619
  8
D-STR-STRC_標識_
  6
CONTINUOUS
 62
     1
 10
36386.005700829082
 20
-11269.065488335111
 30
0.0
 11
36386.031652207254
 21
-11269.165041954089
 31
0.0
  0
LINE
  5
3261A
  8
D-STR-STRC_標識_
  6
CONTINUOUS
 62
     1
 10
36386.772418115237
 20
-11269.065488335111
 30
0.0
 11
36386.791671821549
 21
-11269.165041954089
 31
0.0
  0
LINE
  5
3261B
  8
D-STR-STRC_標識_
  6
CONTINUOUS
 62
     1
 10
36389.146380329403
 20
-11269.065488335111
 30
0.0
 11
36389.244589746653
 21
-11269.165041954089
 31
0.0
  0
LINE
  5
3261C
  8
D-STR-STRC_標識_
  6
CONTINUOUS
 62
     1
 10
36389.785518185978
 20
-11269.065488335111
 30
0.0
 11
36389.883727603483
 21
-11269.165041954089
 31
0.0
  0
LINE
  5
3261D
  8
D-STR-STRC_標識_
  6
CONTINUOUS
 62
     1
 10
36391.097421620543
 20
-11269.065488335111
 30
0.0
 11
36391.077172219368
 21
-11269.165041954089
 31
0.0
  0
LINE
  5
3261E
  8
D-STR-STRC_標識_
  6
CONTINUOUS
 62
     1
 10
36391.868552576132
 20
-11269.065488335111
 30
0.0
 11
36391.841150688939
 21
-11269.165041954089
 31
0.0
  0
LINE
  5
3261F
  8
D-STR-STRC_標識_
  6
CONTINUOUS
 62
     1
 10
36386.031652207254
 20
-11269.165041954089
 30
0.0
 11
36386.037021935903
 21
-11269.185641088179
 31
0.0
  0
LINE
  5
32620
  8
D-STR-STRC_標識_
  6
CONTINUOUS
 62
     1
 10
36386.791671821549
 20
-11269.165041954089
 30
0.0
 11
36386.800064522831
 21
-11269.185641088179
 31
0.0
  0
LINE
  5
32621
  8
D-STR-STRC_標識_
  6
CONTINUOUS
 62
     1
 10
36389.244589746653
 20
-11269.165041954089
 30
0.0
 11
36389.264910745282
 21
-11269.185641088179
 31
0.0
  0
LINE
  5
32622
  8
D-STR-STRC_標識_
  6
CONTINUOUS
 62
     1
 10
36389.883727603483
 20
-11269.165041954089
 30
0.0
 11
36389.904048602162
 21
-11269.185641088179
 31
0.0
  0
LINE
  5
32623
  8
D-STR-STRC_標識_
  6
CONTINUOUS
 62
     1
 10
36391.077172219368
 20
-11269.165041954089
 30
0.0
 11
36391.072982315141
 21
-11269.185641088179
 31
0.0
  0
LINE
  5
32624
  8
D-STR-STRC_標識_
  6
CONTINUOUS
 62
     1
 10
36391.841150688939
 20
-11269.165041954089
 30
0.0
 11
36391.835480828282
 21
-11269.185641088179
 31
0.0
  0
LINE
  5
32625
  8
D-STR-STRC_標識_
  6
CONTINUOUS
 62
     1
 10
36386.037021935903
 20
-11269.185641088179
 30
0.0
 11
36386.126412008532
 21
-11269.52855564044
 31
0.0
  0
LINE
  5
32626
  8
D-STR-STRC_標識_
  6
CONTINUOUS
 62
     1
 10
36386.800064522831
 20
-11269.185641088179
 30
0.0
 11
36386.93977813379
 21
-11269.52855564044
 31
0.0
  0
LINE
  5
32627
  8
D-STR-STRC_標識_
  6
CONTINUOUS
 62
     1
 10
36389.264910745282
 20
-11269.185641088179
 30
0.0
 11
36389.603195166193
 21
-11269.52855564044
 31
0.0
  0
LINE
  5
32628
  8
D-STR-STRC_標識_
  6
CONTINUOUS
 62
     1
 10
36389.904048602162
 20
-11269.185641088179
 30
0.0
 11
36390.242333023918
 21
-11269.52855564044
 31
0.0
  0
LINE
  5
32629
  8
D-STR-STRC_標識_
  6
CONTINUOUS
 62
     1
 10
36391.072982315141
 20
-11269.185641088179
 30
0.0
 11
36390.929405900803
 21
-11269.52855564044
 31
0.0
  0
LINE
  5
3262A
  8
D-STR-STRC_標識_
  6
CONTINUOUS
 62
     1
 10
36391.835480828282
 20
-11269.185641088179
 30
0.0
 11
36391.741094446617
 21
-11269.52855564044
 31
0.0
  0
LINE
  5
3262B
  8
D-STR-STRC_標識_
  6
CONTINUOUS
 62
     1
 10
36386.126412008532
 20
-11269.52855564044
 30
0.0
 11
36386.143860351061
 21
-11269.56664756765
 31
0.0
  0
LINE
  5
3262C
  8
D-STR-STRC_標識_
  6
CONTINUOUS
 62
     1
 10
36386.93977813379
 20
-11269.52855564044
 30
0.0
 11
36386.95529792046
 21
-11269.56664756765
 31
0.0
  0
LINE
  5
3262D
  8
D-STR-STRC_標識_
  6
CONTINUOUS
 62
     1
 10
36389.603195166193
 20
-11269.52855564044
 30
0.0
 11
36389.640772765197
 21
-11269.56664756765
 31
0.0
  0
LINE
  5
3262E
  8
D-STR-STRC_標識_
  6
CONTINUOUS
 62
     1
 10
36390.242333023918
 20
-11269.52855564044
 30
0.0
 11
36390.279910623023
 21
-11269.56664756765
 31
0.0
  0
LINE
  5
3262F
  8
D-STR-STRC_標識_
  6
CONTINUOUS
 62
     1
 10
36390.929405900803
 20
-11269.52855564044
 30
0.0
 11
36390.913457022893
 21
-11269.56664756765
 31
0.0
  0
LINE
  5
32630
  8
D-STR-STRC_標識_
  6
CONTINUOUS
 62
     1
 10
36391.741094446617
 20
-11269.52855564044
 30
0.0
 11
36391.730609737948
 21
-11269.56664756765
 31
0.0
  0
LINE
  5
32631
  8
D-STR-STRC_標識_
  6
CONTINUOUS
 62
     1
 10
36386.143860351061
 20
-11269.56664756765
 30
0.0
 11
36386.145415622428
 21
-11269.570042920741
 31
0.0
  0
LINE
  5
32632
  8
D-STR-STRC_標識_
  6
CONTINUOUS
 62
     1
 10
36386.95529792046
 20
-11269.56664756765
 30
0.0
 11
36386.956681288517
 21
-11269.570042920741
 31
0.0
  0
LINE
  5
32633
  8
D-STR-STRC_標識_
  6
CONTINUOUS
 62
     1
 10
36389.640772765197
 20
-11269.56664756765
 30
0.0
 11
36389.644122273261
 21
-11269.570042920741
 31
0.0
  0
LINE
  5
32634
  8
D-STR-STRC_標識_
  6
CONTINUOUS
 62
     1
 10
36390.279910623023
 20
-11269.56664756765
 30
0.0
 11
36390.283260131087
 21
-11269.570042920741
 31
0.0
  0
LINE
  5
32635
  8
D-STR-STRC_標識_
  6
CONTINUOUS
 62
     1
 10
36390.913457022893
 20
-11269.56664756765
 30
0.0
 11
36390.912035407462
 21
-11269.570042920741
 31
0.0
  0
LINE
  5
32636
  8
D-STR-STRC_標識_
  6
CONTINUOUS
 62
     1
 10
36391.730609737948
 20
-11269.56664756765
 30
0.0
 11
36391.72899827292
 21
-11269.570042920741
 31
0.0
  0
LINE
  5
32637
  8
D-STR-STRC_標識_
  6
CONTINUOUS
 62
     1
 10
36386.145415622428
 20
-11269.570042920741
 30
0.0
 11
36386.154115333178
 21
-11269.589035483959
 31
0.0
  0
LINE
  5
32638
  8
D-STR-STRC_標識_
  6
CONTINUOUS
 62
     1
 10
36386.956681288517
 20
-11269.570042920741
 30
0.0
 11
36386.969199348292
 21
-11269.589035483959
 31
0.0
  0
LINE
  5
32639
  8
D-STR-STRC_標識_
  6
CONTINUOUS
 62
     1
 10
36389.644122273261
 20
-11269.570042920741
 30
0.0
 11
36389.662858393407
 21
-11269.589035483959
 31
0.0
  0
LINE
  5
3263A
  8
D-STR-STRC_標識_
  6
CONTINUOUS
 62
     1
 10
36390.283260131087
 20
-11269.570042920741
 30
0.0
 11
36390.301996251277
 21
-11269.589035483959
 31
0.0
  0
LINE
  5
3263B
  8
D-STR-STRC_標識_
  6
CONTINUOUS
 62
     1
 10
36390.912035407462
 20
-11269.570042920741
 30
0.0
 11
36390.904083326946
 21
-11269.589035483959
 31
0.0
  0
LINE
  5
3263C
  8
D-STR-STRC_標識_
  6
CONTINUOUS
 62
     1
 10
36391.72899827292
 20
-11269.570042920741
 30
0.0
 11
36391.719984232033
 21
-11269.589035483959
 31
0.0
  0
LINE
  5
3263D
  8
D-STR-STRC_標識_
  6
CONTINUOUS
 62
     1
 10
36386.154115333178
 20
-11269.589035483959
 30
0.0
 11
36386.31267430383
 21
-11269.93518966786
 31
0.0
  0
LINE
  5
3263E
  8
D-STR-STRC_標識_
  6
CONTINUOUS
 62
     1
 10
36386.969199348292
 20
-11269.589035483959
 30
0.0
 11
36387.197350688861
 21
-11269.93518966786
 31
0.0
  0
LINE
  5
3263F
  8
D-STR-STRC_標識_
  6
CONTINUOUS
 62
     1
 10
36389.662858393407
 20
-11269.589035483959
 30
0.0
 11
36390.004338703511
 21
-11269.93518966786
 31
0.0
  0
LINE
  5
32640
  8
D-STR-STRC_標識_
  6
CONTINUOUS
 62
     1
 10
36390.301996251277
 20
-11269.589035483959
 30
0.0
 11
36390.643476562247
 21
-11269.93518966786
 31
0.0
  0
LINE
  5
32641
  8
D-STR-STRC_標識_
  6
CONTINUOUS
 62
     1
 10
36390.904083326946
 20
-11269.589035483959
 30
0.0
 11
36390.671123363143
 21
-11269.93518966786
 31
0.0
  0
LINE
  5
32642
  8
D-STR-STRC_標識_
  6
CONTINUOUS
 62
     1
 10
36391.719984232033
 20
-11269.589035483959
 30
0.0
 11
36391.555696351148
 21
-11269.93518966786
 31
0.0
  0
LINE
  5
32643
  8
D-STR-STRC_標識_
  6
CONTINUOUS
 62
     1
 10
36386.31267430383
 20
-11269.93518966786
 30
0.0
 11
36386.320305468442
 21
-11269.951849460391
 31
0.0
  0
LINE
  5
32644
  8
D-STR-STRC_標識_
  6
CONTINUOUS
 62
     1
 10
36387.197350688861
 20
-11269.93518966786
 30
0.0
 11
36387.213785536063
 21
-11269.951849460391
 31
0.0
  0
LINE
  5
32645
  8
D-STR-STRC_標識_
  6
CONTINUOUS
 62
     1
 10
36390.004338703511
 20
-11269.93518966786
 30
0.0
 11
36390.020773550721
 21
-11269.951849460391
 31
0.0
  0
LINE
  5
32646
  8
D-STR-STRC_標識_
  6
CONTINUOUS
 62
     1
 10
36390.643476562247
 20
-11269.93518966786
 30
0.0
 11
36390.659911409493
 21
-11269.951849460391
 31
0.0
  0
LINE
  5
32647
  8
D-STR-STRC_標識_
  6
CONTINUOUS
 62
     1
 10
36390.671123363143
 20
-11269.93518966786
 30
0.0
 11
36390.659911409493
 21
-11269.951849460391
 31
0.0
  0
LINE
  5
32648
  8
D-STR-STRC_標識_
  6
CONTINUOUS
 62
     1
 10
36391.555696351148
 20
-11269.93518966786
 30
0.0
 11
36391.547789464174
 21
-11269.951849460391
 31
0.0
  0
LINE
  5
32649
  8
D-STR-STRC_標識_
  6
CONTINUOUS
 62
     1
 10
36386.320305468442
 20
-11269.951849460391
 30
0.0
 11
36386.342880609031
 21
-11270.00113383286
 31
0.0
  0
LINE
  5
3264A
  8
D-STR-STRC_標識_
  6
CONTINUOUS
 62
     1
 10
36387.213785536063
 20
-11269.951849460391
 30
0.0
 11
36387.262404456713
 21
-11270.00113383286
 31
0.0
  0
LINE
  5
3264B
  8
D-STR-STRC_標識_
  6
CONTINUOUS
 62
     1
 10
36390.020773550721
 20
-11269.951849460391
 30
0.0
 11
36390.069392471363
 21
-11270.00113383286
 31
0.0
  0
LINE
  5
3264C
  8
D-STR-STRC_標識_
  6
CONTINUOUS
 62
     1
 10
36391.547789464174
 20
-11269.951849460391
 30
0.0
 11
36391.524398658883
 21
-11270.00113383286
 31
0.0
  0
LINE
  5
3264D
  8
D-STR-STRC_標識_
  6
CONTINUOUS
 62
     1
 10
36386.342880609031
 20
-11270.00113383286
 30
0.0
 11
36386.367107970953
 21
-11270.03623954288
 31
0.0
  0
LINE
  5
3264E
  8
D-STR-STRC_標識_
  6
CONTINUOUS
 62
     1
 10
36387.262404456713
 20
-11270.00113383286
 30
0.0
 11
36387.297036159282
 21
-11270.03623954288
 31
0.0
  0
LINE
  5
3264F
  8
D-STR-STRC_標識_
  6
CONTINUOUS
 62
     1
 10
36390.069392471363
 20
-11270.00113383286
 30
0.0
 11
36390.104024173932
 21
-11270.03623954288
 31
0.0
  0
LINE
  5
32650
  8
D-STR-STRC_標識_
  6
CONTINUOUS
 62
     1
 10
36391.524398658883
 20
-11270.00113383286
 30
0.0
 11
36391.50773717399
 21
-11270.03623954288
 31
0.0
  0
LINE
  5
32651
  8
D-STR-STRC_標識_
  6
CONTINUOUS
 62
     1
 10
36386.367107970953
 20
-11270.03623954288
 30
0.0
 11
36386.512228280633
 21
-11270.24652044452
 31
0.0
  0
LINE
  5
32652
  8
D-STR-STRC_標識_
  6
CONTINUOUS
 62
     1
 10
36387.297036159282
 20
-11270.03623954288
 30
0.0
 11
36387.50447778745
 21
-11270.24652044452
 31
0.0
  0
LINE
  5
32653
  8
D-STR-STRC_標識_
  6
CONTINUOUS
 62
     1
 10
36390.104024173932
 20
-11270.03623954288
 30
0.0
 11
36390.3114658021
 21
-11270.24652044452
 31
0.0
  0
LINE
  5
32654
  8
D-STR-STRC_標識_
  6
CONTINUOUS
 62
     1
 10
36391.50773717399
 20
-11270.03623954288
 30
0.0
 11
36391.358356663011
 21
-11270.24652044452
 31
0.0
  0
LINE
  5
32655
  8
D-STR-STRC_標識_
  6
CONTINUOUS
 62
     1
 10
36386.512228280633
 20
-11270.24652044452
 30
0.0
 11
36386.529390621326
 21
-11270.2713888622
 31
0.0
  0
LINE
  5
32656
  8
D-STR-STRC_標識_
  6
CONTINUOUS
 62
     1
 10
36387.50447778745
 20
-11270.24652044452
 30
0.0
 11
36387.541114720967
 21
-11270.2713888622
 31
0.0
  0
LINE
  5
32657
  8
D-STR-STRC_標識_
  6
CONTINUOUS
 62
     1
 10
36390.3114658021
 20
-11270.24652044452
 30
0.0
 11
36390.335998439223
 21
-11270.2713888622
 31
0.0
  0
LINE
  5
32658
  8
D-STR-STRC_標識_
  6
CONTINUOUS
 62
     1
 10
36391.358356663011
 20
-11270.24652044452
 30
0.0
 11
36391.340690498793
 21
-11270.2713888622
 31
0.0
  0
LINE
  5
32659
  8
D-STR-STRC_標識_
  6
CONTINUOUS
 62
     1
 10
36386.529390621326
 20
-11270.2713888622
 30
0.0
 11
36386.63812290701
 21
-11270.42894312267
 31
0.0
  0
LINE
  5
3265A
  8
D-STR-STRC_標識_
  6
CONTINUOUS
 62
     1
 10
36387.541114720967
 20
-11270.2713888622
 30
0.0
 11
36387.773228602993
 21
-11270.42894312267
 31
0.0
  0
LINE
  5
3265B
  8
D-STR-STRC_標識_
  6
CONTINUOUS
 62
     1
 10
36390.335998439223
 20
-11270.2713888622
 30
0.0
 11
36390.094876625197
 21
-11270.42894312267
 31
0.0
  0
LINE
  5
3265C
  8
D-STR-STRC_標識_
  6
CONTINUOUS
 62
     1
 10
36391.340690498793
 20
-11270.2713888622
 30
0.0
 11
36391.228766231041
 21
-11270.42894312267
 31
0.0
  0
LINE
  5
3265D
  8
D-STR-STRC_標識_
  6
CONTINUOUS
 62
     1
 10
36386.63812290701
 20
-11270.42894312267
 30
0.0
 11
36386.668756446241
 21
-11270.45999594625
 31
0.0
  0
LINE
  5
3265E
  8
D-STR-STRC_標識_
  6
CONTINUOUS
 62
     1
 10
36387.773228602993
 20
-11270.42894312267
 30
0.0
 11
36387.818976597409
 21
-11270.45999594625
 31
0.0
  0
LINE
  5
3265F
  8
D-STR-STRC_標識_
  6
CONTINUOUS
 62
     1
 10
36390.094876625197
 20
-11270.42894312267
 30
0.0
 11
36390.047353231494
 21
-11270.45999594625
 31
0.0
  0
LINE
  5
32660
  8
D-STR-STRC_標識_
  6
CONTINUOUS
 62
     1
 10
36391.228766231041
 20
-11270.42894312267
 30
0.0
 11
36391.206706754332
 21
-11270.45999594625
 31
0.0
  0
LINE
  5
32661
  8
D-STR-STRC_標識_
  6
CONTINUOUS
 62
     1
 10
36386.668756446241
 20
-11270.45999594625
 30
0.0
 11
36386.700457807507
 21
-11270.492131207269
 31
0.0
  0
LINE
  5
32662
  8
D-STR-STRC_標識_
  6
CONTINUOUS
 62
     1
 10
36387.818976597409
 20
-11270.45999594625
 30
0.0
 11
36387.866319272653
 21
-11270.492131207269
 31
0.0
  0
LINE
  5
32663
  8
D-STR-STRC_標識_
  6
CONTINUOUS
 62
     1
 10
36390.047353231494
 20
-11270.45999594625
 30
0.0
 11
36389.998173270193
 21
-11270.492131207269
 31
0.0
  0
LINE
  5
32664
  8
D-STR-STRC_標識_
  6
CONTINUOUS
 62
     1
 10
36391.206706754332
 20
-11270.45999594625
 30
0.0
 11
36391.174131654727
 21
-11270.492131207269
 31
0.0
  0
LINE
  5
32665
  8
D-STR-STRC_標識_
  6
CONTINUOUS
 62
     1
 10
36386.700457807507
 20
-11270.492131207269
 30
0.0
 11
36386.718683475083
 21
-11270.510606331411
 31
0.0
  0
LINE
  5
32666
  8
D-STR-STRC_標識_
  6
CONTINUOUS
 62
     1
 10
36387.866319272653
 20
-11270.492131207269
 30
0.0
 11
36387.909957570337
 21
-11270.510606331411
 31
0.0
  0
LINE
  5
32667
  8
D-STR-STRC_標識_
  6
CONTINUOUS
 62
     1
 10
36389.998173270193
 20
-11270.492131207269
 30
0.0
 11
36389.969898849471
 21
-11270.510606331411
 31
0.0
  0
LINE
  5
32668
  8
D-STR-STRC_標識_
  6
CONTINUOUS
 62
     1
 10
36391.174131654727
 20
-11270.492131207269
 30
0.0
 11
36391.155403659701
 21
-11270.510606331411
 31
0.0
  0
LINE
  5
32669
  8
D-STR-STRC_標識_
  6
CONTINUOUS
 62
     1
 10
36386.718683475083
 20
-11270.510606331411
 30
0.0
 11
36386.868655247883
 21
-11270.662630783059
 31
0.0
  0
LINE
  5
3266A
  8
D-STR-STRC_標識_
  6
CONTINUOUS
 62
     1
 10
36387.909957570337
 20
-11270.510606331411
 30
0.0
 11
36388.269039773542
 21
-11270.662630783059
 31
0.0
  0
LINE
  5
3266B
  8
D-STR-STRC_標識_
  6
CONTINUOUS
 62
     1
 10
36389.969898849471
 20
-11270.510606331411
 30
0.0
 11
36389.592486173096
 21
-11270.662630783059
 31
0.0
  0
LINE
  5
3266C
  8
D-STR-STRC_標識_
  6
CONTINUOUS
 62
     1
 10
36391.155403659701
 20
-11270.510606331411
 30
0.0
 11
36391.001298433963
 21
-11270.662630783059
 31
0.0
  0
LINE
  5
3266D
  8
D-STR-STRC_標識_
  6
CONTINUOUS
 62
     1
 10
36386.868655247883
 20
-11270.662630783059
 30
0.0
 11
36386.879877069427
 21
-11270.674006198809
 31
0.0
  0
LINE
  5
3266E
  8
D-STR-STRC_標識_
  6
CONTINUOUS
 62
     1
 10
36388.269039773542
 20
-11270.662630783059
 30
0.0
 11
36388.32385029611
 21
-11270.674006198809
 31
0.0
  0
LINE
  5
3266F
  8
D-STR-STRC_標識_
  6
CONTINUOUS
 62
     1
 10
36389.592486173096
 20
-11270.662630783059
 30
0.0
 11
36389.564245807429
 21
-11270.674006198809
 31
0.0
  0
LINE
  5
32670
  8
D-STR-STRC_標識_
  6
CONTINUOUS
 62
     1
 10
36391.001298433963
 20
-11270.662630783059
 30
0.0
 11
36390.989767321727
 21
-11270.674006198809
 31
0.0
  0
LINE
  5
32671
  8
D-STR-STRC_標識_
  6
CONTINUOUS
 62
     1
 10
36386.879877069427
 20
-11270.674006198809
 30
0.0
 11
36386.956324477353
 21
-11270.751499950169
 31
0.0
  0
LINE
  5
32672
  8
D-STR-STRC_標識_
  6
CONTINUOUS
 62
     1
 10
36388.32385029611
 20
-11270.674006198809
 30
0.0
 11
36388.697240869202
 21
-11270.751499950169
 31
0.0
  0
LINE
  5
32673
  8
D-STR-STRC_標識_
  6
CONTINUOUS
 62
     1
 10
36389.564245807429
 20
-11270.674006198809
 30
0.0
 11
36389.154840852709
 21
-11270.751499950169
 31
0.0
  0
LINE
  5
32674
  8
D-STR-STRC_標識_
  6
CONTINUOUS
 62
     1
 10
36390.989767321727
 20
-11270.674006198809
 30
0.0
 11
36390.91121290555
 21
-11270.751499950169
 31
0.0
  0
LINE
  5
32675
  8
D-STR-STRC_標識_
  6
CONTINUOUS
 62
     1
 10
36386.956324477353
 20
-11270.751499950169
 30
0.0
 11
36386.960113375302
 21
-11270.75534070715
 31
0.0
  0
LINE
  5
32676
  8
D-STR-STRC_標識_
  6
CONTINUOUS
 62
     1
 10
36390.91121290555
 20
-11270.751499950169
 30
0.0
 11
36390.907319579739
 21
-11270.75534070715
 31
0.0
  0
LINE
  5
32677
  8
D-STR-STRC_標識_
  6
CONTINUOUS
 62
     1
 10
36386.960113375302
 20
-11270.75534070715
 30
0.0
 11
36387.00316811465
 21
-11270.79898474107
 31
0.0
  0
LINE
  5
32678
  8
D-STR-STRC_標識_
  6
CONTINUOUS
 62
     1
 10
36390.907319579739
 20
-11270.75534070715
 30
0.0
 11
36390.863078185503
 21
-11270.79898474107
 31
0.0
  0
LINE
  5
32679
  8
D-STR-STRC_標識_
  6
CONTINUOUS
 62
     1
 10
36387.00316811465
 20
-11270.79898474107
 30
0.0
 11
36387.039847370477
 21
-11270.825041153879
 31
0.0
  0
LINE
  5
3267A
  8
D-STR-STRC_標識_
  6
CONTINUOUS
 62
     1
 10
36390.863078185503
 20
-11270.79898474107
 30
0.0
 11
36390.836665135932
 21
-11270.825041153879
 31
0.0
  0
LINE
  5
3267B
  8
D-STR-STRC_標識_
  6
CONTINUOUS
 62
     1
 10
36387.039847370477
 20
-11270.825041153879
 30
0.0
 11
36387.426924518011
 21
-11271.10001516073
 31
0.0
  0
LINE
  5
3267C
  8
D-STR-STRC_標識_
  6
CONTINUOUS
 62
     1
 10
36390.836665135932
 20
-11270.825041153879
 30
0.0
 11
36390.438224819642
 21
-11271.10001516073
 31
0.0
  0
LINE
  5
3267D
  8
D-STR-STRC_標識_
  6
CONTINUOUS
 62
     1
 10
36387.426924518011
 20
-11271.10001516073
 30
0.0
 11
36387.469629760402
 21
-11271.120283451861
 31
0.0
  0
LINE
  5
3267E
  8
D-STR-STRC_標識_
  6
CONTINUOUS
 62
     1
 10
36390.438224819642
 20
-11271.10001516073
 30
0.0
 11
36390.408855846123
 21
-11271.120283451861
 31
0.0
  0
LINE
  5
3267F
  8
D-STR-STRC_標識_
  6
CONTINUOUS
 62
     1
 10
36387.469629760402
 20
-11271.120283451861
 30
0.0
 11
36387.896516493238
 21
-11271.322887724689
 31
0.0
  0
LINE
  5
32680
  8
D-STR-STRC_標識_
  6
CONTINUOUS
 62
     1
 10
36390.408855846123
 20
-11271.120283451861
 30
0.0
 11
36389.966545225507
 21
-11271.322887724689
 31
0.0
  0
LINE
  5
32681
  8
D-STR-STRC_標識_
  6
CONTINUOUS
 62
     1
 10
36387.896516493238
 20
-11271.322887724689
 30
0.0
 11
36387.946886892372
 21
-11271.336752052361
 31
0.0
  0
LINE
  5
32682
  8
D-STR-STRC_標識_
  6
CONTINUOUS
 62
     1
 10
36389.966545225507
 20
-11271.322887724689
 30
0.0
 11
36389.936277653702
 21
-11271.336752052361
 31
0.0
  0
LINE
  5
32683
  8
D-STR-STRC_標識_
  6
CONTINUOUS
 62
     1
 10
36387.946886892372
 20
-11271.336752052361
 30
0.0
 11
36388.397675725777
 21
-11271.46083056287
 31
0.0
  0
LINE
  5
32684
  8
D-STR-STRC_標識_
  6
CONTINUOUS
 62
     1
 10
36389.936277653702
 20
-11271.336752052361
 30
0.0
 11
36389.460292730277
 21
-11271.46083056287
 31
0.0
  0
LINE
  5
32685
  8
D-STR-STRC_標識_
  6
CONTINUOUS
 62
     1
 10
36388.397675725777
 20
-11271.46083056287
 30
0.0
 11
36388.472288502271
 21
-11271.4678696665
 31
0.0
  0
LINE
  5
32686
  8
D-STR-STRC_標識_
  6
CONTINUOUS
 62
     1
 10
36389.460292730277
 20
-11271.46083056287
 30
0.0
 11
36389.433289607892
 21
-11271.4678696665
 31
0.0
  0
LINE
  5
32687
  8
D-STR-STRC_標識_
  6
CONTINUOUS
 62
     1
 10
36389.433289607892
 20
-11271.4678696665
 30
0.0
 11
36388.915174745947
 21
-11271.509652351921
 31
0.0
  0
LINE
  5
32688
  8
D-STR-STRC_標識_
  6
CONTINUOUS
 62
     1
 10
36388.915174745947
 20
-11271.509652351921
 30
0.0
 11
36388.472288502271
 21
-11271.4678696665
 31
0.0
  0
ENDBLK
  5
3268A
  8
0
  0
BLOCK
  8
0
  2
*U103
 70
     1
 10
0.0
 20
0.0
 30
0.0
  3
*U103
  1

  0
SOLID
  5
3268C
  8
D-STR-STRC_標識_
  6
CONTINUOUS
 62
     5
 10
36388.736336209033
 20
-11266.300101346949
 30
0.0
 11
36388.716045222063
 21
-11266.30394210337
 31
0.0
 12
36389.17364520202
 22
-11266.30394210337
 32
0.0
 13
36389.17364520202
 23
-11266.30394210337
 33
0.0
210
0.0
220
0.0
230
1.0
  0
SOLID
  5
3268D
  8
D-STR-STRC_標識_
  6
CONTINUOUS
 62
     5
 10
36388.716045222063
 20
-11266.30394210337
 30
0.0
 11
36388.306640264847
 21
-11266.38143585573
 31
0.0
 12
36389.547035782321
 22
-11266.38143585573
 32
0.0
 13
36389.547035782321
 23
-11266.38143585573
 33
0.0
210
0.0
220
0.0
230
1.0
  0
SOLID
  5
3268E
  8
D-STR-STRC_標識_
  6
CONTINUOUS
 62
     5
 10
-36388.716045222063
 20
-11266.30394210337
 30
0.0
 11
-36389.17364520202
 21
-11266.30394210337
 31
0.0
 12
-36389.547035782321
 22
-11266.38143585573
 32
0.0
 13
-36389.547035782321
 23
-11266.38143585573
 33
0.0
210
0.0
220
0.0
230
-1.0
  0
SOLID
  5
3268F
  8
D-STR-STRC_標識_
  6
CONTINUOUS
 62
     5
 10
36388.306640264847
 20
-11266.38143585573
 30
0.0
 11
36388.278399903364
 21
-11266.39281126984
 31
0.0
 12
36389.601846297322
 22
-11266.39281126984
 32
0.0
 13
36389.601846297322
 23
-11266.39281126984
 33
0.0
210
0.0
220
0.0
230
1.0
  0
SOLID
  5
32690
  8
D-STR-STRC_標識_
  6
CONTINUOUS
 62
     5
 10
-36388.306640264847
 20
-11266.38143585573
 30
0.0
 11
-36389.547035782321
 21
-11266.38143585573
 31
0.0
 12
-36389.601846297322
 22
-11266.39281126984
 32
0.0
 13
-36389.601846297322
 23
-11266.39281126984
 33
0.0
210
0.0
220
0.0
230
-1.0
  0
SOLID
  5
32691
  8
D-STR-STRC_標識_
  6
CONTINUOUS
 62
     5
 10
36388.278399903364
 20
-11266.39281126984
 30
0.0
 11
36387.90098722346
 21
-11266.544835723471
 31
0.0
 12
36389.960928506429
 22
-11266.544835723471
 32
0.0
 13
36389.960928506429
 23
-11266.544835723471
 33
0.0
  0
SOLID
  5
32692
  8
D-STR-STRC_標識_
  6
CONTINUOUS
 62
     5
 10
-36388.278399903364
 20
-11266.39281126984
 30
0.0
 11
-36389.601846297322
 21
-11266.39281126984
 31
0.0
 12
-36389.960928506429
 22
-11266.544835723471
 32
0.0
 13
-36389.960928506429
 23
-11266.544835723471
 33
0.0
210
0.0
220
0.0
230
-1.0
  0
SOLID
  5
32693
  8
D-STR-STRC_標識_
  6
CONTINUOUS
 62
     5
 10
36387.90098722346
 20
-11266.544835723471
 30
0.0
 11
36387.8727128069
 21
-11266.56331084494
 31
0.0
 12
36390.004566797987
 22
-11266.56331084494
 32
0.0
 13
36390.004566797987
 23
-11266.56331084494
 33
0.0
210
0.0
220
0.0
230
1.0
  0
SOLID
  5
32694
  8
D-STR-STRC_標識_
  6
CONTINUOUS
 62
     5
 10
-36387.90098722346
 20
-11266.544835723471
 30
0.0
 11
-36389.960928506429
 21
-11266.544835723471
 31
0.0
 12
-36390.004566797987
 22
-11266.56331084494
 32
0.0
 13
-36390.004566797987
 23
-11266.56331084494
 33
0.0
210
0.0
220
0.0
230
-1.0
  0
SOLID
  5
32695
  8
D-STR-STRC_標識_
  6
CONTINUOUS
 62
     5
 10
36387.8727128069
 20
-11266.56331084494
 30
0.0
 11
36387.534887634421
 21
-11266.78405319286
 31
0.0
 12
36390.329771354751
 22
-11266.78405319286
 32
0.0
 13
36390.329771354751
 23
-11266.78405319286
 33
0.0
210
0.0
220
0.0
230
1.0
  0
SOLID
  5
32696
  8
D-STR-STRC_標識_
  6
CONTINUOUS
 62
     5
 10
-36387.8727128069
 20
-11266.56331084494
 30
0.0
 11
-36390.004566797987
 21
-11266.56331084494
 31
0.0
 12
-36390.329771354751
 22
-11266.78405319286
 32
0.0
 13
-36390.329771354751
 23
-11266.78405319286
 33
0.0
210
0.0
220
0.0
230
-1.0
  0
SOLID
  5
32697
  8
D-STR-STRC_標識_
  6
CONTINUOUS
 62
     5
 10
36387.534887634421
 20
-11266.78405319286
 30
0.0
 11
36387.559420268073
 21
-11266.80892160696
 31
0.0
 12
36390.366408283087
 22
-11266.80892160696
 32
0.0
 13
36390.366408283087
 23
-11266.80892160696
 33
0.0
210
0.0
220
0.0
230
1.0
  0
SOLID
  5
32698
  8
D-STR-STRC_標識_
  6
CONTINUOUS
 62
     5
 10
-36387.534887634421
 20
-11266.78405319286
 30
0.0
 11
-36390.329771354751
 21
-11266.78405319286
 31
0.0
 12
-36390.366408283087
 22
-11266.80892160696
 32
0.0
 13
-36390.366408283087
 23
-11266.80892160696
 33
0.0
210
0.0
220
0.0
230
-1.0
  0
SOLID
  5
32699
  8
D-STR-STRC_標識_
  6
CONTINUOUS
 62
     5
 10
36387.559420268073
 20
-11266.80892160696
 30
0.0
 11
36387.850112516382
 21
-11267.103592587249
 31
0.0
 12
36390.657100531411
 22
-11267.103592587249
 32
0.0
 13
36390.657100531411
 23
-11267.103592587249
 33
0.0
210
0.0
220
0.0
230
1.0
  0
SOLID
  5
3269A
  8
D-STR-STRC_標識_
  6
CONTINUOUS
 62
     5
 10
-36387.559420268073
 20
-11266.80892160696
 30
0.0
 11
-36390.366408283087
 21
-11266.80892160696
 31
0.0
 12
-36390.657100531411
 22
-11267.103592587249
 32
0.0
 13
-36390.657100531411
 23
-11267.103592587249
 33
0.0
210
0.0
220
0.0
230
-1.0
  0
SOLID
  5
3269B
  8
D-STR-STRC_標識_
  6
CONTINUOUS
 62
     5
 10
36387.21097466466
 20
-11267.103592587249
 30
0.0
 11
36387.199762708893
 21
-11267.1202523829
 31
0.0
 12
36387.227409514933
 22
-11267.1202523829
 32
0.0
 13
36387.227409514933
 23
-11267.1202523829
 33
0.0
  0
SOLID
  5
3269C
  8
D-STR-STRC_標識_
  6
CONTINUOUS
 62
     5
 10
36387.850112516382
 20
-11267.103592587249
 30
0.0
 11
36387.866547366699
 21
-11267.1202523829
 31
0.0
 12
36390.673535381728
 22
-11267.1202523829
 32
0.0
 13
36390.673535381728
 23
-11267.1202523829
 33
0.0
210
0.0
220
0.0
230
1.0
  0
SOLID
  5
3269D
  8
D-STR-STRC_標識_
  6
CONTINUOUS
 62
     5
 10
-36387.850112516382
 20
-11267.103592587249
 30
0.0
 11
-36390.657100531411
 21
-11267.103592587249
 31
0.0
 12
-36390.673535381728
 22
-11267.1202523829
 32
0.0
 13
-36390.673535381728
 23
-11267.1202523829
 33
0.0
210
0.0
220
0.0
230
-1.0
  0
SOLID
  5
3269E
  8
D-STR-STRC_標識_
  6
CONTINUOUS
 62
     5
 10
36387.199762708893
 20
-11267.1202523829
 30
0.0
 11
36386.96680274648
 21
-11267.466406563781
 31
0.0
 12
36387.568889822061
 22
-11267.466406563781
 32
0.0
 13
36387.568889822061
 23
-11267.466406563781
 33
0.0
210
0.0
220
0.0
230
1.0
  0
SOLID
  5
3269F
  8
D-STR-STRC_標識_
  6
CONTINUOUS
 62
     5
 10
-36387.199762708893
 20
-11267.1202523829
 30
0.0
 11
-36387.227409514933
 21
-11267.1202523829
 31
0.0
 12
-36387.568889822061
 22
-11267.466406563781
 32
0.0
 13
-36387.568889822061
 23
-11267.466406563781
 33
0.0
210
0.0
220
0.0
230
-1.0
  0
SOLID
  5
326A0
  8
D-STR-STRC_標識_
  6
CONTINUOUS
 62
     5
 10
36387.866547366699
 20
-11267.1202523829
 30
0.0
 11
36388.208027674693
 21
-11267.466406563781
 31
0.0
 12
36390.901686720943
 22
-11267.466406563781
 32
0.0
 13
36390.901686720943
 23
-11267.466406563781
 33
0.0
210
0.0
220
0.0
230
1.0
  0
SOLID
  5
326A1
  8
D-STR-STRC_標識_
  6
CONTINUOUS
 62
     5
 10
-36387.866547366699
 20
-11267.1202523829
 30
0.0
 11
-36390.673535381728
 21
-11267.1202523829
 31
0.0
 12
-36390.901686720943
 22
-11267.466406563781
 32
0.0
 13
-36390.901686720943
 23
-11267.466406563781
 33
0.0
210
0.0
220
0.0
230
-1.0
  0
SOLID
  5
326A2
  8
D-STR-STRC_標識_
  6
CONTINUOUS
 62
     5
 10
36386.96680274648
 20
-11267.466406563781
 30
0.0
 11
36386.958850664982
 21
-11267.485399129309
 31
0.0
 12
36387.587625944492
 22
-11267.485399129309
 32
0.0
 13
36387.587625944492
 23
-11267.485399129309
 33
0.0
  0
SOLID
  5
326A3
  8
D-STR-STRC_標識_
  6
CONTINUOUS
 62
     5
 10
-36386.96680274648
 20
-11267.466406563781
 30
0.0
 11
-36387.568889822061
 21
-11267.466406563781
 31
0.0
 12
-36387.587625944492
 22
-11267.485399129309
 32
0.0
 13
-36387.587625944492
 23
-11267.485399129309
 33
0.0
210
0.0
220
0.0
230
-1.0
  0
SOLID
  5
326A4
  8
D-STR-STRC_標識_
  6
CONTINUOUS
 62
     5
 10
36388.208027674693
 20
-11267.466406563781
 30
0.0
 11
36388.22676379716
 21
-11267.485399129309
 31
0.0
 12
36390.914204782261
 22
-11267.485399129309
 32
0.0
 13
36390.914204782261
 23
-11267.485399129309
 33
0.0
210
0.0
220
0.0
230
1.0
  0
SOLID
  5
326A5
  8
D-STR-STRC_標識_
  6
CONTINUOUS
 62
     5
 10
-36388.208027674693
 20
-11267.466406563781
 30
0.0
 11
-36390.901686720943
 21
-11267.466406563781
 31
0.0
 12
-36390.914204782261
 22
-11267.485399129309
 32
0.0
 13
-36390.914204782261
 23
-11267.485399129309
 33
0.0
210
0.0
220
0.0
230
-1.0
  0
SOLID
  5
326A6
  8
D-STR-STRC_標識_
  6
CONTINUOUS
 62
     5
 10
36386.958850664982
 20
-11267.485399129309
 30
0.0
 11
36386.797903757601
 21
-11267.869800959799
 31
0.0
 12
36387.96683747042
 22
-11267.869800959799
 32
0.0
 13
36387.96683747042
 23
-11267.869800959799
 33
0.0
  0
SOLID
  5
326A7
  8
D-STR-STRC_標識_
  6
CONTINUOUS
 62
     5
 10
-36386.958850664982
 20
-11267.485399129309
 30
0.0
 11
-36387.587625944492
 21
-11267.485399129309
 31
0.0
 12
-36387.96683747042
 22
-11267.869800959799
 32
0.0
 13
-36387.96683747042
 23
-11267.869800959799
 33
0.0
210
0.0
220
0.0
230
-1.0
  0
SOLID
  5
326A8
  8
D-STR-STRC_標識_
  6
CONTINUOUS
 62
     5
 10
36388.22676379716
 20
-11267.485399129309
 30
0.0
 11
36388.605975324041
 21
-11267.869800959799
 31
0.0
 12
36391.07082154767
 22
-11267.869800959799
 32
0.0
 13
36391.07082154767
 23
-11267.869800959799
 33
0.0
210
0.0
220
0.0
230
1.0
  0
SOLID
  5
326A9
  8
D-STR-STRC_標識_
  6
CONTINUOUS
 62
     5
 10
-36388.22676379716
 20
-11267.485399129309
 30
0.0
 11
-36390.914204782261
 21
-11267.485399129309
 31
0.0
 12
-36391.07082154767
 22
-11267.869800959799
 32
0.0
 13
-36391.07082154767
 23
-11267.869800959799
 33
0.0
210
0.0
220
0.0
230
-1.0
  0
SOLID
  5
326AA
  8
D-STR-STRC_標識_
  6
CONTINUOUS
 62
     5
 10
36386.797903757601
 20
-11267.869800959799
 30
0.0
 11
36386.793713853047
 21
-11267.89040009531
 31
0.0
 12
36387.98715847046
 22
-11267.89040009531
 32
0.0
 13
36387.98715847046
 23
-11267.89040009531
 33
0.0
210
0.0
220
0.0
230
1.0
  0
SOLID
  5
326AB
  8
D-STR-STRC_標識_
  6
CONTINUOUS
 62
     5
 10
-36386.797903757601
 20
-11267.869800959799
 30
0.0
 11
-36387.96683747042
 21
-11267.869800959799
 31
0.0
 12
-36387.98715847046
 22
-11267.89040009531
 32
0.0
 13
-36387.98715847046
 23
-11267.89040009531
 33
0.0
210
0.0
220
0.0
230
-1.0
  0
SOLID
  5
326AC
  8
D-STR-STRC_標識_
  6
CONTINUOUS
 62
     5
 10
36388.605975324041
 20
-11267.869800959799
 30
0.0
 11
36388.626296324132
 21
-11267.89040009531
 31
0.0
 12
36391.079214249563
 22
-11267.89040009531
 32
0.0
 13
36391.079214249563
 23
-11267.89040009531
 33
0.0
210
0.0
220
0.0
230
1.0
  0
SOLID
  5
326AD
  8
D-STR-STRC_標識_
  6
CONTINUOUS
 62
     5
 10
-36388.605975324041
 20
-11267.869800959799
 30
0.0
 11
-36391.07082154767
 21
-11267.869800959799
 31
0.0
 12
-36391.079214249563
 22
-11267.89040009531
 32
0.0
 13
-36391.079214249563
 23
-11267.89040009531
 33
0.0
210
0.0
220
0.0
230
-1.0
  0
SOLID
  5
326AE
  8
D-STR-STRC_標識_
  6
CONTINUOUS
 62
     5
 10
36386.793713853047
 20
-11267.89040009531
 30
0.0
 11
36386.710735719702
 21
-11268.298351587329
 31
0.0
 12
36388.389601683579
 22
-11268.298351587329
 32
0.0
 13
36388.389601683579
 23
-11268.298351587329
 33
0.0
210
0.0
220
0.0
230
1.0
  0
SOLID
  5
326AF
  8
D-STR-STRC_標識_
  6
CONTINUOUS
 62
     5
 10
-36386.793713853047
 20
-11267.89040009531
 30
0.0
 11
-36387.98715847046
 21
-11267.89040009531
 31
0.0
 12
-36388.389601683579
 22
-11268.298351587329
 32
0.0
 13
-36388.389601683579
 23
-11268.298351587329
 33
0.0
210
0.0
220
0.0
230
-1.0
  0
SOLID
  5
326B0
  8
D-STR-STRC_標識_
  6
CONTINUOUS
 62
     5
 10
36388.626296324132
 20
-11267.89040009531
 30
0.0
 11
36389.028739538262
 21
-11268.298351587329
 31
0.0
 12
36391.158112217803
 22
-11268.298351587329
 32
0.0
 13
36391.158112217803
 23
-11268.298351587329
 33
0.0
210
0.0
220
0.0
230
1.0
  0
SOLID
  5
326B1
  8
D-STR-STRC_標識_
  6
CONTINUOUS
 62
     5
 10
-36388.626296324132
 20
-11267.89040009531
 30
0.0
 11
-36391.079214249563
 21
-11267.89040009531
 31
0.0
 12
-36391.158112217803
 22
-11268.298351587329
 32
0.0
 13
-36391.158112217803
 23
-11268.298351587329
 33
0.0
210
0.0
220
0.0
230
-1.0
  0
SOLID
  5
326B2
  8
D-STR-STRC_標識_
  6
CONTINUOUS
 62
     5
 10
36386.710735719702
 20
-11268.298351587329
 30
0.0
 11
36386.710632668539
 21
-11268.319769664109
 31
0.0
 12
36388.410730567302
 22
-11268.319769664109
 32
0.0
 13
36388.410730567302
 23
-11268.319769664109
 33
0.0
210
0.0
220
0.0
230
1.0
  0
SOLID
  5
326B3
  8
D-STR-STRC_標識_
  6
CONTINUOUS
 62
     5
 10
-36386.710735719702
 20
-11268.298351587329
 30
0.0
 11
-36388.389601683579
 21
-11268.298351587329
 31
0.0
 12
-36388.410730567302
 22
-11268.319769664109
 32
0.0
 13
-36388.410730567302
 23
-11268.319769664109
 33
0.0
210
0.0
220
0.0
230
-1.0
  0
SOLID
  5
326B4
  8
D-STR-STRC_標識_
  6
CONTINUOUS
 62
     5
 10
36389.028739538262
 20
-11268.298351587329
 30
0.0
 11
36389.049868422037
 21
-11268.319769664109
 31
0.0
 12
36391.162254481707
 22
-11268.319769664109
 32
0.0
 13
36391.162254481707
 23
-11268.319769664109
 33
0.0
210
0.0
220
0.0
230
1.0
  0
SOLID
  5
326B5
  8
D-STR-STRC_標識_
  6
CONTINUOUS
 62
     5
 10
-36389.028739538262
 20
-11268.298351587329
 30
0.0
 11
-36391.158112217803
 21
-11268.298351587329
 31
0.0
 12
-36391.162254481707
 22
-11268.319769664109
 32
0.0
 13
-36391.162254481707
 23
-11268.319769664109
 33
0.0
210
0.0
220
0.0
230
-1.0
  0
SOLID
  5
326B6
  8
D-STR-STRC_標識_
  6
CONTINUOUS
 62
     5
 10
36386.710632668539
 20
-11268.319769664109
 30
0.0
 11
36386.708631589841
 21
-11268.73567238471
 31
0.0
 12
36388.821017649228
 22
-11268.73567238471
 32
0.0
 13
36388.821017649228
 23
-11268.73567238471
 33
0.0
210
0.0
220
0.0
230
1.0
  0
SOLID
  5
326B7
  8
D-STR-STRC_標識_
  6
CONTINUOUS
 62
     5
 10
-36386.710632668539
 20
-11268.319769664109
 30
0.0
 11
-36388.410730567302
 21
-11268.319769664109
 31
0.0
 12
-36388.821017649228
 22
-11268.73567238471
 32
0.0
 13
-36388.821017649228
 23
-11268.73567238471
 33
0.0
210
0.0
220
0.0
230
-1.0
  0
SOLID
  5
326B8
  8
D-STR-STRC_標識_
  6
CONTINUOUS
 62
     5
 10
36389.049868422037
 20
-11268.319769664109
 30
0.0
 11
36389.460155505003
 21
-11268.73567238471
 31
0.0
 12
36391.160253403526
 22
-11268.73567238471
 32
0.0
 13
36391.160253403526
 23
-11268.73567238471
 33
0.0
  0
SOLID
  5
326B9
  8
D-STR-STRC_標識_
  6
CONTINUOUS
 62
     5
 10
-36389.049868422037
 20
-11268.319769664109
 30
0.0
 11
-36391.162254481707
 21
-11268.319769664109
 31
0.0
 12
-36391.160253403526
 22
-11268.73567238471
 32
0.0
 13
-36391.160253403526
 23
-11268.73567238471
 33
0.0
210
0.0
220
0.0
230
-1.0
  0
SOLID
  5
326BA
  8
D-STR-STRC_標識_
  6
CONTINUOUS
 62
     5
 10
36386.708631589841
 20
-11268.73567238471
 30
0.0
 11
36386.712773853629
 21
-11268.757090461009
 31
0.0
 12
36388.842146532479
 22
-11268.757090461009
 32
0.0
 13
36388.842146532479
 23
-11268.757090461009
 33
0.0
210
0.0
220
0.0
230
1.0
  0
SOLID
  5
326BB
  8
D-STR-STRC_標識_
  6
CONTINUOUS
 62
     5
 10
-36386.708631589841
 20
-11268.73567238471
 30
0.0
 11
-36388.821017649228
 21
-11268.73567238471
 31
0.0
 12
-36388.842146532479
 22
-11268.757090461009
 32
0.0
 13
-36388.842146532479
 23
-11268.757090461009
 33
0.0
210
0.0
220
0.0
230
-1.0
  0
SOLID
  5
326BC
  8
D-STR-STRC_標識_
  6
CONTINUOUS
 62
     5
 10
36389.460155505003
 20
-11268.73567238471
 30
0.0
 11
36389.48128438829
 21
-11268.757090461009
 31
0.0
 12
36391.1601503524
 22
-11268.757090461009
 32
0.0
 13
36391.1601503524
 23
-11268.757090461009
 33
0.0
210
0.0
220
0.0
230
1.0
  0
SOLID
  5
326BD
  8
D-STR-STRC_標識_
  6
CONTINUOUS
 62
     5
 10
-36389.460155505003
 20
-11268.73567238471
 30
0.0
 11
-36391.160253403526
 21
-11268.73567238471
 31
0.0
 12
-36391.1601503524
 22
-11268.757090461009
 32
0.0
 13
-36391.1601503524
 23
-11268.757090461009
 33
0.0
210
0.0
220
0.0
230
-1.0
  0
SOLID
  5
326BE
  8
D-STR-STRC_標識_
  6
CONTINUOUS
 62
     5
 10
36386.712773853629
 20
-11268.757090461009
 30
0.0
 11
36386.791671821542
 21
-11269.165041954089
 31
0.0
 12
36389.244589746653
 22
-11269.165041954089
 32
0.0
 13
36389.244589746653
 23
-11269.165041954089
 33
0.0
210
0.0
220
0.0
230
1.0
  0
SOLID
  5
326BF
  8
D-STR-STRC_標識_
  6
CONTINUOUS
 62
     5
 10
-36386.712773853629
 20
-11268.757090461009
 30
0.0
 11
-36388.842146532479
 21
-11268.757090461009
 31
0.0
 12
-36389.244589746653
 22
-11269.165041954089
 32
0.0
 13
-36389.244589746653
 23
-11269.165041954089
 33
0.0
210
0.0
220
0.0
230
-1.0
  0
SOLID
  5
326C0
  8
D-STR-STRC_標識_
  6
CONTINUOUS
 62
     5
 10
36389.48128438829
 20
-11268.757090461009
 30
0.0
 11
36389.883727603483
 21
-11269.165041954089
 31
0.0
 12
36391.07717221936
 22
-11269.165041954089
 32
0.0
 13
36391.07717221936
 23
-11269.165041954089
 33
0.0
210
0.0
220
0.0
230
1.0
  0
SOLID
  5
326C1
  8
D-STR-STRC_標識_
  6
CONTINUOUS
 62
     5
 10
-36389.48128438829
 20
-11268.757090461009
 30
0.0
 11
-36391.1601503524
 21
-11268.757090461009
 31
0.0
 12
-36391.07717221936
 22
-11269.165041954089
 32
0.0
 13
-36391.07717221936
 23
-11269.165041954089
 33
0.0
210
0.0
220
0.0
230
-1.0
  0
SOLID
  5
326C2
  8
D-STR-STRC_標識_
  6
CONTINUOUS
 62
     5
 10
36386.791671821542
 20
-11269.165041954089
 30
0.0
 11
36386.800064522831
 21
-11269.18564108817
 31
0.0
 12
36389.264910745282
 22
-11269.18564108817
 32
0.0
 13
36389.264910745282
 23
-11269.18564108817
 33
0.0
210
0.0
220
0.0
230
1.0
  0
SOLID
  5
326C3
  8
D-STR-STRC_標識_
  6
CONTINUOUS
 62
     5
 10
-36386.791671821542
 20
-11269.165041954089
 30
0.0
 11
-36389.244589746653
 21
-11269.165041954089
 31
0.0
 12
-36389.264910745282
 22
-11269.18564108817
 32
0.0
 13
-36389.264910745282
 23
-11269.18564108817
 33
0.0
210
0.0
220
0.0
230
-1.0
  0
SOLID
  5
326C4
  8
D-STR-STRC_標識_
  6
CONTINUOUS
 62
     5
 10
36389.883727603483
 20
-11269.165041954089
 30
0.0
 11
36389.904048602162
 21
-11269.18564108817
 31
0.0
 12
36391.072982315127
 22
-11269.18564108817
 32
0.0
 13
36391.072982315127
 23
-11269.18564108817
 33
0.0
210
0.0
220
0.0
230
1.0
  0
SOLID
  5
326C5
  8
D-STR-STRC_標識_
  6
CONTINUOUS
 62
     5
 10
-36389.883727603483
 20
-11269.165041954089
 30
0.0
 11
-36391.07717221936
 21
-11269.165041954089
 31
0.0
 12
-36391.072982315127
 22
-11269.18564108817
 32
0.0
 13
-36391.072982315127
 23
-11269.18564108817
 33
0.0
210
0.0
220
0.0
230
-1.0
  0
SOLID
  5
326C6
  8
D-STR-STRC_標識_
  6
CONTINUOUS
 62
     5
 10
36386.800064522831
 20
-11269.18564108817
 30
0.0
 11
36386.956681288517
 21
-11269.57004292075
 31
0.0
 12
36389.644122273261
 22
-11269.57004292075
 32
0.0
 13
36389.644122273261
 23
-11269.57004292075
 33
0.0
210
0.0
220
0.0
230
1.0
  0
SOLID
  5
326C7
  8
D-STR-STRC_標識_
  6
CONTINUOUS
 62
     5
 10
-36386.800064522831
 20
-11269.18564108817
 30
0.0
 11
-36389.264910745282
 21
-11269.18564108817
 31
0.0
 12
-36389.644122273261
 22
-11269.57004292075
 32
0.0
 13
-36389.644122273261
 23
-11269.57004292075
 33
0.0
210
0.0
220
0.0
230
-1.0
  0
SOLID
  5
326C8
  8
D-STR-STRC_標識_
  6
CONTINUOUS
 62
     5
 10
36389.904048602162
 20
-11269.18564108817
 30
0.0
 11
36390.283260131087
 21
-11269.57004292075
 31
0.0
 12
36390.91203540744
 22
-11269.57004292075
 32
0.0
 13
36390.91203540744
 23
-11269.57004292075
 33
0.0
210
0.0
220
0.0
230
1.0
  0
SOLID
  5
326C9
  8
D-STR-STRC_標識_
  6
CONTINUOUS
 62
     5
 10
-36389.904048602162
 20
-11269.18564108817
 30
0.0
 11
-36391.072982315127
 21
-11269.18564108817
 31
0.0
 12
-36390.91203540744
 22
-11269.57004292075
 32
0.0
 13
-36390.91203540744
 23
-11269.57004292075
 33
0.0
210
0.0
220
0.0
230
-1.0
  0
SOLID
  5
326CA
  8
D-STR-STRC_標識_
  6
CONTINUOUS
 62
     5
 10
36386.956681288517
 20
-11269.57004292075
 30
0.0
 11
36386.96919934827
 21
-11269.589035483959
 31
0.0
 12
36389.6628583934
 22
-11269.589035483959
 32
0.0
 13
36389.6628583934
 23
-11269.589035483959
 33
0.0
210
0.0
220
0.0
230
1.0
  0
SOLID
  5
326CB
  8
D-STR-STRC_標識_
  6
CONTINUOUS
 62
     5
 10
-36386.956681288517
 20
-11269.57004292075
 30
0.0
 11
-36389.644122273261
 21
-11269.57004292075
 31
0.0
 12
-36389.6628583934
 22
-11269.589035483959
 32
0.0
 13
-36389.6628583934
 23
-11269.589035483959
 33
0.0
210
0.0
220
0.0
230
-1.0
  0
SOLID
  5
326CC
  8
D-STR-STRC_標識_
  6
CONTINUOUS
 62
     5
 10
36390.283260131087
 20
-11269.57004292075
 30
0.0
 11
36390.301996251277
 21
-11269.589035483959
 31
0.0
 12
36390.904083326939
 22
-11269.589035483959
 32
0.0
 13
36390.904083326939
 23
-11269.589035483959
 33
0.0
210
0.0
220
0.0
230
1.0
  0
SOLID
  5
326CD
  8
D-STR-STRC_標識_
  6
CONTINUOUS
 62
     5
 10
-36390.283260131087
 20
-11269.57004292075
 30
0.0
 11
-36390.91203540744
 21
-11269.57004292075
 31
0.0
 12
-36390.904083326939
 22
-11269.589035483959
 32
0.0
 13
-36390.904083326939
 23
-11269.589035483959
 33
0.0
210
0.0
220
0.0
230
-1.0
  0
SOLID
  5
326CE
  8
D-STR-STRC_標識_
  6
CONTINUOUS
 62
     5
 10
36386.96919934827
 20
-11269.589035483959
 30
0.0
 11
36387.197350688853
 21
-11269.93518966786
 31
0.0
 12
36390.004338703511
 22
-11269.93518966786
 32
0.0
 13
36390.004338703511
 23
-11269.93518966786
 33
0.0
210
0.0
220
0.0
230
1.0
  0
SOLID
  5
326CF
  8
D-STR-STRC_標識_
  6
CONTINUOUS
 62
     5
 10
-36386.96919934827
 20
-11269.589035483959
 30
0.0
 11
-36389.6628583934
 21
-11269.589035483959
 31
0.0
 12
-36390.004338703511
 22
-11269.93518966786
 32
0.0
 13
-36390.004338703511
 23
-11269.93518966786
 33
0.0
210
0.0
220
0.0
230
-1.0
  0
SOLID
  5
326D0
  8
D-STR-STRC_標識_
  6
CONTINUOUS
 62
     5
 10
36390.301996251277
 20
-11269.589035483959
 30
0.0
 11
36390.643476562247
 21
-11269.93518966786
 31
0.0
 12
36390.671123363143
 22
-11269.93518966786
 32
0.0
 13
36390.671123363143
 23
-11269.93518966786
 33
0.0
  0
SOLID
  5
326D1
  8
D-STR-STRC_標識_
  6
CONTINUOUS
 62
     5
 10
-36390.301996251277
 20
-11269.589035483959
 30
0.0
 11
-36390.904083326939
 21
-11269.589035483959
 31
0.0
 12
-36390.671123363143
 22
-11269.93518966786
 32
0.0
 13
-36390.671123363143
 23
-11269.93518966786
 33
0.0
210
0.0
220
0.0
230
-1.0
  0
SOLID
  5
326D2
  8
D-STR-STRC_標識_
  6
CONTINUOUS
 62
     5
 10
36387.197350688853
 20
-11269.93518966786
 30
0.0
 11
36387.213785536063
 21
-11269.951849460391
 31
0.0
 12
36390.020773550721
 22
-11269.951849460391
 32
0.0
 13
36390.020773550721
 23
-11269.951849460391
 33
0.0
  0
SOLID
  5
326D3
  8
D-STR-STRC_標識_
  6
CONTINUOUS
 62
     5
 10
-36387.197350688853
 20
-11269.93518966786
 30
0.0
 11
-36390.004338703511
 21
-11269.93518966786
 31
0.0
 12
-36390.020773550721
 22
-11269.951849460391
 32
0.0
 13
-36390.020773550721
 23
-11269.951849460391
 33
0.0
210
0.0
220
0.0
230
-1.0
  0
SOLID
  5
326D4
  8
D-STR-STRC_標識_
  6
CONTINUOUS
 62
     5
 10
-36390.643476562247
 20
-11269.93518966786
 30
0.0
 11
-36390.671123363143
 21
-11269.93518966786
 31
0.0
 12
-36390.659911409493
 22
-11269.951849460391
 32
0.0
 13
-36390.659911409493
 23
-11269.951849460391
 33
0.0
210
0.0
220
0.0
230
-1.0
  0
SOLID
  5
326D5
  8
D-STR-STRC_標識_
  6
CONTINUOUS
 62
     5
 10
36387.213785536063
 20
-11269.951849460391
 30
0.0
 11
36387.504477787443
 21
-11270.246520444531
 31
0.0
 12
36390.3114658021
 22
-11270.246520444531
 32
0.0
 13
36390.3114658021
 23
-11270.246520444531
 33
0.0
210
0.0
220
0.0
230
1.0
  0
SOLID
  5
326D6
  8
D-STR-STRC_標識_
  6
CONTINUOUS
 62
     5
 10
-36387.213785536063
 20
-11269.951849460391
 30
0.0
 11
-36390.020773550721
 21
-11269.951849460391
 31
0.0
 12
-36390.3114658021
 22
-11270.246520444531
 32
0.0
 13
-36390.3114658021
 23
-11270.246520444531
 33
0.0
210
0.0
220
0.0
230
-1.0
  0
SOLID
  5
326D7
  8
D-STR-STRC_標識_
  6
CONTINUOUS
 62
     5
 10
36387.504477787443
 20
-11270.246520444531
 30
0.0
 11
36387.54111472096
 21
-11270.2713888622
 31
0.0
 12
36390.335998439223
 22
-11270.2713888622
 32
0.0
 13
36390.335998439223
 23
-11270.2713888622
 33
0.0
210
0.0
220
0.0
230
1.0
  0
SOLID
  5
326D8
  8
D-STR-STRC_標識_
  6
CONTINUOUS
 62
     5
 10
-36387.504477787443
 20
-11270.246520444531
 30
0.0
 11
-36390.3114658021
 21
-11270.246520444531
 31
0.0
 12
-36390.335998439223
 22
-11270.2713888622
 32
0.0
 13
-36390.335998439223
 23
-11270.2713888622
 33
0.0
210
0.0
220
0.0
230
-1.0
  0
SOLID
  5
326D9
  8
D-STR-STRC_標識_
  6
CONTINUOUS
 62
     5
 10
36387.54111472096
 20
-11270.2713888622
 30
0.0
 11
36387.866319272638
 21
-11270.49213120728
 31
0.0
 12
36389.998173270178
 22
-11270.49213120728
 32
0.0
 13
36389.998173270178
 23
-11270.49213120728
 33
0.0
  0
SOLID
  5
326DA
  8
D-STR-STRC_標識_
  6
CONTINUOUS
 62
     5
 10
-36387.54111472096
 20
-11270.2713888622
 30
0.0
 11
-36390.335998439223
 21
-11270.2713888622
 31
0.0
 12
-36389.998173270178
 22
-11270.49213120728
 32
0.0
 13
-36389.998173270178
 23
-11270.49213120728
 33
0.0
210
0.0
220
0.0
230
-1.0
  0
SOLID
  5
326DB
  8
D-STR-STRC_標識_
  6
CONTINUOUS
 62
     5
 10
36387.866319272638
 20
-11270.49213120728
 30
0.0
 11
36387.909957570329
 21
-11270.510606331411
 31
0.0
 12
36389.969898849471
 22
-11270.510606331411
 32
0.0
 13
36389.969898849471
 23
-11270.510606331411
 33
0.0
210
0.0
220
0.0
230
1.0
  0
SOLID
  5
326DC
  8
D-STR-STRC_標識_
  6
CONTINUOUS
 62
     5
 10
-36387.866319272638
 20
-11270.49213120728
 30
0.0
 11
-36389.998173270178
 21
-11270.49213120728
 31
0.0
 12
-36389.969898849471
 22
-11270.510606331411
 32
0.0
 13
-36389.969898849471
 23
-11270.510606331411
 33
0.0
210
0.0
220
0.0
230
-1.0
  0
SOLID
  5
326DD
  8
D-STR-STRC_標識_
  6
CONTINUOUS
 62
     5
 10
36387.909957570329
 20
-11270.510606331411
 30
0.0
 11
36388.269039773542
 21
-11270.66263078307
 31
0.0
 12
36389.592486173089
 22
-11270.66263078307
 32
0.0
 13
36389.592486173089
 23
-11270.66263078307
 33
0.0
  0
SOLID
  5
326DE
  8
D-STR-STRC_標識_
  6
CONTINUOUS
 62
     5
 10
-36387.909957570329
 20
-11270.510606331411
 30
0.0
 11
-36389.969898849471
 21
-11270.510606331411
 31
0.0
 12
-36389.592486173089
 22
-11270.66263078307
 32
0.0
 13
-36389.592486173089
 23
-11270.66263078307
 33
0.0
210
0.0
220
0.0
230
-1.0
  0
SOLID
  5
326DF
  8
D-STR-STRC_標識_
  6
CONTINUOUS
 62
     5
 10
36388.269039773542
 20
-11270.66263078307
 30
0.0
 11
36388.323850296103
 21
-11270.67400619882
 31
0.0
 12
36389.564245807429
 22
-11270.67400619882
 32
0.0
 13
36389.564245807429
 23
-11270.67400619882
 33
0.0
  0
SOLID
  5
326E0
  8
D-STR-STRC_標識_
  6
CONTINUOUS
 62
     5
 10
-36388.269039773542
 20
-11270.66263078307
 30
0.0
 11
-36389.592486173089
 21
-11270.66263078307
 31
0.0
 12
-36389.564245807429
 22
-11270.67400619882
 32
0.0
 13
-36389.564245807429
 23
-11270.67400619882
 33
0.0
210
0.0
220
0.0
230
-1.0
  0
SOLID
  5
326E1
  8
D-STR-STRC_標識_
  6
CONTINUOUS
 62
     5
 10
36388.323850296103
 20
-11270.67400619882
 30
0.0
 11
36388.697240869187
 21
-11270.751499950169
 31
0.0
 12
36389.154840852701
 22
-11270.751499950169
 32
0.0
 13
36389.154840852701
 23
-11270.751499950169
 33
0.0
210
0.0
220
0.0
230
1.0
  0
SOLID
  5
326E2
  8
D-STR-STRC_標識_
  6
CONTINUOUS
 62
     5
 10
-36388.323850296103
 20
-11270.67400619882
 30
0.0
 11
-36389.564245807429
 21
-11270.67400619882
 31
0.0
 12
-36389.154840852701
 22
-11270.751499950169
 32
0.0
 13
-36389.154840852701
 23
-11270.751499950169
 33
0.0
210
0.0
220
0.0
230
-1.0
  0
SOLID
  5
326E3
  8
D-STR-STRC_標識_
  6
CONTINUOUS
 62
     5
 10
-36388.697240869187
 20
-11270.751499950169
 30
0.0
 11
-36389.154840852701
 21
-11270.751499950169
 31
0.0
 12
-36389.134549862669
 22
-11270.75534070715
 32
0.0
 13
-36389.134549862669
 23
-11270.75534070715
 33
0.0
210
0.0
220
0.0
230
-1.0
  0
LINE
  5
326E4
  8
D-STR-STRC_標識_
  6
CONTINUOUS
 62
     5
 10
36388.736336209033
 20
-11266.300101346949
 30
0.0
 11
36388.716045222063
 21
-11266.30394210337
 31
0.0
  0
LINE
  5
326E5
  8
D-STR-STRC_標識_
  6
CONTINUOUS
 62
     5
 10
36389.17364520202
 20
-11266.30394210337
 30
0.0
 11
36388.736336209033
 21
-11266.300101346949
 31
0.0
  0
LINE
  5
326E6
  8
D-STR-STRC_標識_
  6
CONTINUOUS
 62
     5
 10
36388.716045222063
 20
-11266.30394210337
 30
0.0
 11
36388.306640264847
 21
-11266.38143585573
 31
0.0
  0
LINE
  5
326E7
  8
D-STR-STRC_標識_
  6
CONTINUOUS
 62
     5
 10
36389.17364520202
 20
-11266.30394210337
 30
0.0
 11
36389.547035782321
 21
-11266.38143585573
 31
0.0
  0
LINE
  5
326E8
  8
D-STR-STRC_標識_
  6
CONTINUOUS
 62
     5
 10
36388.306640264847
 20
-11266.38143585573
 30
0.0
 11
36388.278399903364
 21
-11266.39281126984
 31
0.0
  0
LINE
  5
326E9
  8
D-STR-STRC_標識_
  6
CONTINUOUS
 62
     5
 10
36389.547035782321
 20
-11266.38143585573
 30
0.0
 11
36389.601846297322
 21
-11266.39281126984
 31
0.0
  0
LINE
  5
326EA
  8
D-STR-STRC_標識_
  6
CONTINUOUS
 62
     5
 10
36388.278399903364
 20
-11266.39281126984
 30
0.0
 11
36387.90098722346
 21
-11266.544835723471
 31
0.0
  0
LINE
  5
326EB
  8
D-STR-STRC_標識_
  6
CONTINUOUS
 62
     5
 10
36389.601846297322
 20
-11266.39281126984
 30
0.0
 11
36389.960928506429
 21
-11266.544835723471
 31
0.0
  0
LINE
  5
326EC
  8
D-STR-STRC_標識_
  6
CONTINUOUS
 62
     5
 10
36387.90098722346
 20
-11266.544835723471
 30
0.0
 11
36387.8727128069
 21
-11266.56331084494
 31
0.0
  0
LINE
  5
326ED
  8
D-STR-STRC_標識_
  6
CONTINUOUS
 62
     5
 10
36389.960928506429
 20
-11266.544835723471
 30
0.0
 11
36390.004566797987
 21
-11266.56331084494
 31
0.0
  0
LINE
  5
326EE
  8
D-STR-STRC_標識_
  6
CONTINUOUS
 62
     5
 10
36387.8727128069
 20
-11266.56331084494
 30
0.0
 11
36387.534887634421
 21
-11266.78405319286
 31
0.0
  0
LINE
  5
326EF
  8
D-STR-STRC_標識_
  6
CONTINUOUS
 62
     5
 10
36390.004566797987
 20
-11266.56331084494
 30
0.0
 11
36390.329771354751
 21
-11266.78405319286
 31
0.0
  0
LINE
  5
326F0
  8
D-STR-STRC_標識_
  6
CONTINUOUS
 62
     5
 10
36387.534887634421
 20
-11266.78405319286
 30
0.0
 11
36387.559420268073
 21
-11266.80892160696
 31
0.0
  0
LINE
  5
326F1
  8
D-STR-STRC_標識_
  6
CONTINUOUS
 62
     5
 10
36390.329771354751
 20
-11266.78405319286
 30
0.0
 11
36390.366408283087
 21
-11266.80892160696
 31
0.0
  0
LINE
  5
326F2
  8
D-STR-STRC_標識_
  6
CONTINUOUS
 62
     5
 10
36387.559420268073
 20
-11266.80892160696
 30
0.0
 11
36387.850112516382
 21
-11267.103592587249
 31
0.0
  0
LINE
  5
326F3
  8
D-STR-STRC_標識_
  6
CONTINUOUS
 62
     5
 10
36390.366408283087
 20
-11266.80892160696
 30
0.0
 11
36390.657100531411
 21
-11267.103592587249
 31
0.0
  0
LINE
  5
326F4
  8
D-STR-STRC_標識_
  6
CONTINUOUS
 62
     5
 10
36387.21097466466
 20
-11267.103592587249
 30
0.0
 11
36387.199762708893
 21
-11267.1202523829
 31
0.0
  0
LINE
  5
326F5
  8
D-STR-STRC_標識_
  6
CONTINUOUS
 62
     5
 10
36387.227409514933
 20
-11267.1202523829
 30
0.0
 11
36387.21097466466
 21
-11267.103592587249
 31
0.0
  0
LINE
  5
326F6
  8
D-STR-STRC_標識_
  6
CONTINUOUS
 62
     5
 10
36387.850112516382
 20
-11267.103592587249
 30
0.0
 11
36387.866547366699
 21
-11267.1202523829
 31
0.0
  0
LINE
  5
326F7
  8
D-STR-STRC_標識_
  6
CONTINUOUS
 62
     5
 10
36390.657100531411
 20
-11267.103592587249
 30
0.0
 11
36390.673535381728
 21
-11267.1202523829
 31
0.0
  0
LINE
  5
326F8
  8
D-STR-STRC_標識_
  6
CONTINUOUS
 62
     5
 10
36387.199762708893
 20
-11267.1202523829
 30
0.0
 11
36386.96680274648
 21
-11267.466406563781
 31
0.0
  0
LINE
  5
326F9
  8
D-STR-STRC_標識_
  6
CONTINUOUS
 62
     5
 10
36387.227409514933
 20
-11267.1202523829
 30
0.0
 11
36387.568889822061
 21
-11267.466406563781
 31
0.0
  0
LINE
  5
326FA
  8
D-STR-STRC_標識_
  6
CONTINUOUS
 62
     5
 10
36387.866547366699
 20
-11267.1202523829
 30
0.0
 11
36388.208027674693
 21
-11267.466406563781
 31
0.0
  0
LINE
  5
326FB
  8
D-STR-STRC_標識_
  6
CONTINUOUS
 62
     5
 10
36390.673535381728
 20
-11267.1202523829
 30
0.0
 11
36390.901686720943
 21
-11267.466406563781
 31
0.0
  0
LINE
  5
326FC
  8
D-STR-STRC_標識_
  6
CONTINUOUS
 62
     5
 10
36386.96680274648
 20
-11267.466406563781
 30
0.0
 11
36386.958850664982
 21
-11267.485399129309
 31
0.0
  0
LINE
  5
326FD
  8
D-STR-STRC_標識_
  6
CONTINUOUS
 62
     5
 10
36387.568889822061
 20
-11267.466406563781
 30
0.0
 11
36387.587625944492
 21
-11267.485399129309
 31
0.0
  0
LINE
  5
326FE
  8
D-STR-STRC_標識_
  6
CONTINUOUS
 62
     5
 10
36388.208027674693
 20
-11267.466406563781
 30
0.0
 11
36388.22676379716
 21
-11267.485399129309
 31
0.0
  0
LINE
  5
326FF
  8
D-STR-STRC_標識_
  6
CONTINUOUS
 62
     5
 10
36390.901686720943
 20
-11267.466406563781
 30
0.0
 11
36390.914204782261
 21
-11267.485399129309
 31
0.0
  0
LINE
  5
32700
  8
D-STR-STRC_標識_
  6
CONTINUOUS
 62
     5
 10
36386.958850664982
 20
-11267.485399129309
 30
0.0
 11
36386.797903757601
 21
-11267.869800959799
 31
0.0
  0
LINE
  5
32701
  8
D-STR-STRC_標識_
  6
CONTINUOUS
 62
     5
 10
36387.587625944492
 20
-11267.485399129309
 30
0.0
 11
36387.96683747042
 21
-11267.869800959799
 31
0.0
  0
LINE
  5
32702
  8
D-STR-STRC_標識_
  6
CONTINUOUS
 62
     5
 10
36388.22676379716
 20
-11267.485399129309
 30
0.0
 11
36388.605975324041
 21
-11267.869800959799
 31
0.0
  0
LINE
  5
32703
  8
D-STR-STRC_標識_
  6
CONTINUOUS
 62
     5
 10
36390.914204782261
 20
-11267.485399129309
 30
0.0
 11
36391.07082154767
 21
-11267.869800959799
 31
0.0
  0
LINE
  5
32704
  8
D-STR-STRC_標識_
  6
CONTINUOUS
 62
     5
 10
36386.797903757601
 20
-11267.869800959799
 30
0.0
 11
36386.793713853047
 21
-11267.89040009531
 31
0.0
  0
LINE
  5
32705
  8
D-STR-STRC_標識_
  6
CONTINUOUS
 62
     5
 10
36387.96683747042
 20
-11267.869800959799
 30
0.0
 11
36387.98715847046
 21
-11267.89040009531
 31
0.0
  0
LINE
  5
32706
  8
D-STR-STRC_標識_
  6
CONTINUOUS
 62
     5
 10
36388.605975324041
 20
-11267.869800959799
 30
0.0
 11
36388.626296324132
 21
-11267.89040009531
 31
0.0
  0
LINE
  5
32707
  8
D-STR-STRC_標識_
  6
CONTINUOUS
 62
     5
 10
36391.07082154767
 20
-11267.869800959799
 30
0.0
 11
36391.079214249563
 21
-11267.89040009531
 31
0.0
  0
LINE
  5
32708
  8
D-STR-STRC_標識_
  6
CONTINUOUS
 62
     5
 10
36386.793713853047
 20
-11267.89040009531
 30
0.0
 11
36386.710735719702
 21
-11268.298351587329
 31
0.0
  0
LINE
  5
32709
  8
D-STR-STRC_標識_
  6
CONTINUOUS
 62
     5
 10
36387.98715847046
 20
-11267.89040009531
 30
0.0
 11
36388.389601683579
 21
-11268.298351587329
 31
0.0
  0
LINE
  5
3270A
  8
D-STR-STRC_標識_
  6
CONTINUOUS
 62
     5
 10
36388.626296324132
 20
-11267.89040009531
 30
0.0
 11
36389.028739538262
 21
-11268.298351587329
 31
0.0
  0
LINE
  5
3270B
  8
D-STR-STRC_標識_
  6
CONTINUOUS
 62
     5
 10
36391.079214249563
 20
-11267.89040009531
 30
0.0
 11
36391.158112217803
 21
-11268.298351587329
 31
0.0
  0
LINE
  5
3270C
  8
D-STR-STRC_標識_
  6
CONTINUOUS
 62
     5
 10
36386.710735719702
 20
-11268.298351587329
 30
0.0
 11
36386.710632668539
 21
-11268.319769664109
 31
0.0
  0
LINE
  5
3270D
  8
D-STR-STRC_標識_
  6
CONTINUOUS
 62
     5
 10
36388.389601683579
 20
-11268.298351587329
 30
0.0
 11
36388.410730567302
 21
-11268.319769664109
 31
0.0
  0
LINE
  5
3270E
  8
D-STR-STRC_標識_
  6
CONTINUOUS
 62
     5
 10
36389.028739538262
 20
-11268.298351587329
 30
0.0
 11
36389.049868422037
 21
-11268.319769664109
 31
0.0
  0
LINE
  5
3270F
  8
D-STR-STRC_標識_
  6
CONTINUOUS
 62
     5
 10
36391.158112217803
 20
-11268.298351587329
 30
0.0
 11
36391.162254481707
 21
-11268.319769664109
 31
0.0
  0
LINE
  5
32710
  8
D-STR-STRC_標識_
  6
CONTINUOUS
 62
     5
 10
36386.710632668539
 20
-11268.319769664109
 30
0.0
 11
36386.708631589841
 21
-11268.73567238471
 31
0.0
  0
LINE
  5
32711
  8
D-STR-STRC_標識_
  6
CONTINUOUS
 62
     5
 10
36388.410730567302
 20
-11268.319769664109
 30
0.0
 11
36388.821017649228
 21
-11268.73567238471
 31
0.0
  0
LINE
  5
32712
  8
D-STR-STRC_標識_
  6
CONTINUOUS
 62
     5
 10
36389.049868422037
 20
-11268.319769664109
 30
0.0
 11
36389.460155505003
 21
-11268.73567238471
 31
0.0
  0
LINE
  5
32713
  8
D-STR-STRC_標識_
  6
CONTINUOUS
 62
     5
 10
36391.162254481707
 20
-11268.319769664109
 30
0.0
 11
36391.160253403526
 21
-11268.73567238471
 31
0.0
  0
LINE
  5
32714
  8
D-STR-STRC_標識_
  6
CONTINUOUS
 62
     5
 10
36386.708631589841
 20
-11268.73567238471
 30
0.0
 11
36386.712773853629
 21
-11268.757090461009
 31
0.0
  0
LINE
  5
32715
  8
D-STR-STRC_標識_
  6
CONTINUOUS
 62
     5
 10
36388.821017649228
 20
-11268.73567238471
 30
0.0
 11
36388.842146532479
 21
-11268.757090461009
 31
0.0
  0
LINE
  5
32716
  8
D-STR-STRC_標識_
  6
CONTINUOUS
 62
     5
 10
36389.460155505003
 20
-11268.73567238471
 30
0.0
 11
36389.48128438829
 21
-11268.757090461009
 31
0.0
  0
LINE
  5
32717
  8
D-STR-STRC_標識_
  6
CONTINUOUS
 62
     5
 10
36391.160253403526
 20
-11268.73567238471
 30
0.0
 11
36391.1601503524
 21
-11268.757090461009
 31
0.0
  0
LINE
  5
32718
  8
D-STR-STRC_標識_
  6
CONTINUOUS
 62
     5
 10
36386.712773853629
 20
-11268.757090461009
 30
0.0
 11
36386.791671821542
 21
-11269.165041954089
 31
0.0
  0
LINE
  5
32719
  8
D-STR-STRC_標識_
  6
CONTINUOUS
 62
     5
 10
36388.842146532479
 20
-11268.757090461009
 30
0.0
 11
36389.244589746653
 21
-11269.165041954089
 31
0.0
  0
LINE
  5
3271A
  8
D-STR-STRC_標識_
  6
CONTINUOUS
 62
     5
 10
36389.48128438829
 20
-11268.757090461009
 30
0.0
 11
36389.883727603483
 21
-11269.165041954089
 31
0.0
  0
LINE
  5
3271B
  8
D-STR-STRC_標識_
  6
CONTINUOUS
 62
     5
 10
36391.1601503524
 20
-11268.757090461009
 30
0.0
 11
36391.07717221936
 21
-11269.165041954089
 31
0.0
  0
LINE
  5
3271C
  8
D-STR-STRC_標識_
  6
CONTINUOUS
 62
     5
 10
36386.791671821542
 20
-11269.165041954089
 30
0.0
 11
36386.800064522831
 21
-11269.18564108817
 31
0.0
  0
LINE
  5
3271D
  8
D-STR-STRC_標識_
  6
CONTINUOUS
 62
     5
 10
36389.244589746653
 20
-11269.165041954089
 30
0.0
 11
36389.264910745282
 21
-11269.18564108817
 31
0.0
  0
LINE
  5
3271E
  8
D-STR-STRC_標識_
  6
CONTINUOUS
 62
     5
 10
36389.883727603483
 20
-11269.165041954089
 30
0.0
 11
36389.904048602162
 21
-11269.18564108817
 31
0.0
  0
LINE
  5
3271F
  8
D-STR-STRC_標識_
  6
CONTINUOUS
 62
     5
 10
36391.07717221936
 20
-11269.165041954089
 30
0.0
 11
36391.072982315127
 21
-11269.18564108817
 31
0.0
  0
LINE
  5
32720
  8
D-STR-STRC_標識_
  6
CONTINUOUS
 62
     5
 10
36386.800064522831
 20
-11269.18564108817
 30
0.0
 11
36386.956681288517
 21
-11269.57004292075
 31
0.0
  0
LINE
  5
32721
  8
D-STR-STRC_標識_
  6
CONTINUOUS
 62
     5
 10
36389.264910745282
 20
-11269.18564108817
 30
0.0
 11
36389.644122273261
 21
-11269.57004292075
 31
0.0
  0
LINE
  5
32722
  8
D-STR-STRC_標識_
  6
CONTINUOUS
 62
     5
 10
36389.904048602162
 20
-11269.18564108817
 30
0.0
 11
36390.283260131087
 21
-11269.57004292075
 31
0.0
  0
LINE
  5
32723
  8
D-STR-STRC_標識_
  6
CONTINUOUS
 62
     5
 10
36391.072982315127
 20
-11269.18564108817
 30
0.0
 11
36390.91203540744
 21
-11269.57004292075
 31
0.0
  0
LINE
  5
32724
  8
D-STR-STRC_標識_
  6
CONTINUOUS
 62
     5
 10
36386.956681288517
 20
-11269.57004292075
 30
0.0
 11
36386.96919934827
 21
-11269.589035483959
 31
0.0
  0
LINE
  5
32725
  8
D-STR-STRC_標識_
  6
CONTINUOUS
 62
     5
 10
36389.644122273261
 20
-11269.57004292075
 30
0.0
 11
36389.6628583934
 21
-11269.589035483959
 31
0.0
  0
LINE
  5
32726
  8
D-STR-STRC_標識_
  6
CONTINUOUS
 62
     5
 10
36390.283260131087
 20
-11269.57004292075
 30
0.0
 11
36390.301996251277
 21
-11269.589035483959
 31
0.0
  0
LINE
  5
32727
  8
D-STR-STRC_標識_
  6
CONTINUOUS
 62
     5
 10
36390.91203540744
 20
-11269.57004292075
 30
0.0
 11
36390.904083326939
 21
-11269.589035483959
 31
0.0
  0
LINE
  5
32728
  8
D-STR-STRC_標識_
  6
CONTINUOUS
 62
     5
 10
36386.96919934827
 20
-11269.589035483959
 30
0.0
 11
36387.197350688853
 21
-11269.93518966786
 31
0.0
  0
LINE
  5
32729
  8
D-STR-STRC_標識_
  6
CONTINUOUS
 62
     5
 10
36389.6628583934
 20
-11269.589035483959
 30
0.0
 11
36390.004338703511
 21
-11269.93518966786
 31
0.0
  0
LINE
  5
3272A
  8
D-STR-STRC_標識_
  6
CONTINUOUS
 62
     5
 10
36390.301996251277
 20
-11269.589035483959
 30
0.0
 11
36390.643476562247
 21
-11269.93518966786
 31
0.0
  0
LINE
  5
3272B
  8
D-STR-STRC_標識_
  6
CONTINUOUS
 62
     5
 10
36390.904083326939
 20
-11269.589035483959
 30
0.0
 11
36390.671123363143
 21
-11269.93518966786
 31
0.0
  0
LINE
  5
3272C
  8
D-STR-STRC_標識_
  6
CONTINUOUS
 62
     5
 10
36387.197350688853
 20
-11269.93518966786
 30
0.0
 11
36387.213785536063
 21
-11269.951849460391
 31
0.0
  0
LINE
  5
3272D
  8
D-STR-STRC_標識_
  6
CONTINUOUS
 62
     5
 10
36390.004338703511
 20
-11269.93518966786
 30
0.0
 11
36390.020773550721
 21
-11269.951849460391
 31
0.0
  0
LINE
  5
3272E
  8
D-STR-STRC_標識_
  6
CONTINUOUS
 62
     5
 10
36390.671123363143
 20
-11269.93518966786
 30
0.0
 11
36390.659911409493
 21
-11269.951849460391
 31
0.0
  0
LINE
  5
3272F
  8
D-STR-STRC_標識_
  6
CONTINUOUS
 62
     5
 10
36390.659911409493
 20
-11269.951849460391
 30
0.0
 11
36390.643476562247
 21
-11269.93518966786
 31
0.0
  0
LINE
  5
32730
  8
D-STR-STRC_標識_
  6
CONTINUOUS
 62
     5
 10
36387.213785536063
 20
-11269.951849460391
 30
0.0
 11
36387.504477787443
 21
-11270.246520444531
 31
0.0
  0
LINE
  5
32731
  8
D-STR-STRC_標識_
  6
CONTINUOUS
 62
     5
 10
36390.020773550721
 20
-11269.951849460391
 30
0.0
 11
36390.3114658021
 21
-11270.246520444531
 31
0.0
  0
LINE
  5
32732
  8
D-STR-STRC_標識_
  6
CONTINUOUS
 62
     5
 10
36387.504477787443
 20
-11270.246520444531
 30
0.0
 11
36387.54111472096
 21
-11270.2713888622
 31
0.0
  0
LINE
  5
32733
  8
D-STR-STRC_標識_
  6
CONTINUOUS
 62
     5
 10
36390.3114658021
 20
-11270.246520444531
 30
0.0
 11
36390.335998439223
 21
-11270.2713888622
 31
0.0
  0
LINE
  5
32734
  8
D-STR-STRC_標識_
  6
CONTINUOUS
 62
     5
 10
36387.54111472096
 20
-11270.2713888622
 30
0.0
 11
36387.866319272638
 21
-11270.49213120728
 31
0.0
  0
LINE
  5
32735
  8
D-STR-STRC_標識_
  6
CONTINUOUS
 62
     5
 10
36390.335998439223
 20
-11270.2713888622
 30
0.0
 11
36389.998173270178
 21
-11270.49213120728
 31
0.0
  0
LINE
  5
32736
  8
D-STR-STRC_標識_
  6
CONTINUOUS
 62
     5
 10
36387.866319272638
 20
-11270.49213120728
 30
0.0
 11
36387.909957570329
 21
-11270.510606331411
 31
0.0
  0
LINE
  5
32737
  8
D-STR-STRC_標識_
  6
CONTINUOUS
 62
     5
 10
36389.998173270178
 20
-11270.49213120728
 30
0.0
 11
36389.969898849471
 21
-11270.510606331411
 31
0.0
  0
LINE
  5
32738
  8
D-STR-STRC_標識_
  6
CONTINUOUS
 62
     5
 10
36387.909957570329
 20
-11270.510606331411
 30
0.0
 11
36388.269039773542
 21
-11270.66263078307
 31
0.0
  0
LINE
  5
32739
  8
D-STR-STRC_標識_
  6
CONTINUOUS
 62
     5
 10
36389.969898849471
 20
-11270.510606331411
 30
0.0
 11
36389.592486173089
 21
-11270.66263078307
 31
0.0
  0
LINE
  5
3273A
  8
D-STR-STRC_標識_
  6
CONTINUOUS
 62
     5
 10
36388.269039773542
 20
-11270.66263078307
 30
0.0
 11
36388.323850296103
 21
-11270.67400619882
 31
0.0
  0
LINE
  5
3273B
  8
D-STR-STRC_標識_
  6
CONTINUOUS
 62
     5
 10
36389.592486173089
 20
-11270.66263078307
 30
0.0
 11
36389.564245807429
 21
-11270.67400619882
 31
0.0
  0
LINE
  5
3273C
  8
D-STR-STRC_標識_
  6
CONTINUOUS
 62
     5
 10
36388.323850296103
 20
-11270.67400619882
 30
0.0
 11
36388.697240869187
 21
-11270.751499950169
 31
0.0
  0
LINE
  5
3273D
  8
D-STR-STRC_標識_
  6
CONTINUOUS
 62
     5
 10
36389.564245807429
 20
-11270.67400619882
 30
0.0
 11
36389.154840852701
 21
-11270.751499950169
 31
0.0
  0
LINE
  5
3273E
  8
D-STR-STRC_標識_
  6
CONTINUOUS
 62
     5
 10
36389.154840852701
 20
-11270.751499950169
 30
0.0
 11
36389.134549862669
 21
-11270.75534070715
 31
0.0
  0
LINE
  5
3273F
  8
D-STR-STRC_標識_
  6
CONTINUOUS
 62
     5
 10
36389.134549862669
 20
-11270.75534070715
 30
0.0
 11
36388.697240869187
 21
-11270.751499950169
 31
0.0
  0
ENDBLK
  5
32741
  8
0
  0
BLOCK
  8
0
  2
*U104
 70
     1
 10
0.0
 20
0.0
 30
0.0
  3
*U104
  1

  0
TEXT
  5
32743
  8
D-STR
 10
36364.03485733462
 20
-11292.71285952341
 30
0.0
 40
35.0
  1
94°
 50
46.805282447599581
  0
ENDBLK
  5
32745
  8
0
  0
ENDSEC
  0
SECTION
  2
ENTITIES
  0
LINE
  5
30FDF
  8
D-WORK
 10
30123.249597355341
 20
-10654.43044690571
 30
0.0
 11
29938.43474448425
 21
-10654.43044690571
 31
0.0
  0
LINE
  5
30FE0
  8
D-WORK
 10
30123.249597355341
 20
-10654.43044690571
 30
0.0
 11
29929.319932825911
 21
-10654.43044690571
 31
0.0
  0
INSERT
  5
3231A
  8
D-STR-STRC_標識_
  6
CONTINUOUS
 62
     1
  2
*U102
 10
0.0
 20
0.0
 30
0.0
1001
ACAD
1002
{
1000
R14_HATCH_DATA
1000
3231A
1011
1.0
1021
0.0
1031
0.0
1021
0.0
1031
0.0
1011
0.0
1021
0.0
1031
0.0
1021
1.0
1031
0.0
1011
0.0
1021
0.0
1031
0.0
1021
0.0
1031
1.0
1040
0.0
1010
0.0
1020
0.0
1030
1.0
1000
SOLID
1070
     1
1070
     0
1071
        3
1071
        7
1070
     1
1070
     1
1071
        2
1040
36385.953511708969
1040
-11268.507452732691
1040
1.0
1040
36391.917374365177
1040
-11268.54798931494
1040
1.0
1071
        0
1071
       22
1070
     1
1070
     1
1071
        2
1040
36390.659911409493
1040
-11269.951849460391
1040
0.0
1040
36387.534887634421
1040
-11266.78405319286
1040
-0.9029622966048702
1071
        0
1071
       22
1070
     1
1070
     1
1071
        2
1040
36387.21097466466
1040
-11267.103592587249
1040
0.0
1040
36390.335998439223
1040
-11270.2713888622
1040
-0.9029622966031924
1071
        0
1070
     0
1070
     1
1040
0.0698292578409093
1071
        3
1040
36388.252250935962
1040
-11266.14944394566
1040
0.0
1040
36388.252250935962
1040
-11266.14944394566
1040
0.0
1040
36388.252250935962
1040
-11266.14944394566
1040
0.0
1002
}
  0
INSERT
  5
3231B
  8
D-STR-STRC_標識_
  6
CONTINUOUS
 62
     5
  2
*U103
 10
0.0
 20
0.0
 30
0.0
1001
ACAD
1002
{
1000
R14_HATCH_DATA
1000
3231B
1011
1.0
1021
0.0
1031
0.0
1021
0.0
1031
0.0
1011
0.0
1021
0.0
1031
0.0
1021
1.0
1031
0.0
1011
0.0
1021
0.0
1031
0.0
1021
0.0
1031
1.0
1040
0.0
1010
0.0
1020
0.0
1030
1.0
1000
SOLID
1070
     1
1070
     0
1071
        2
1071
        7
1070
     1
1070
     1
1071
        2
1040
36390.659911409493
1040
-11269.951849460391
1040
0.9029622966049657
1040
36387.534887634421
1040
-11266.78405319286
1040
0.0
1071
        0
1071
        7
1070
     1
1070
     1
1071
        2
1040
36387.21097466466
1040
-11267.103592587249
1040
0.9029622966056256
1040
36390.335998439223
1040
-11270.2713888622
1040
0.0
1071
        0
1070
     0
1070
     1
1040
0.0698292578409093
1071
        2
1040
36389.706155774918
1040
-11268.090150273079
1040
0.0
1040
36388.916431811362
1040
-11269.160178091561
1040
0.0
1002
}
  0
CIRCLE
  5
3231C
  8
D-STR-STRC_標識_
 10
36388.935443041308
 20
-11268.52772101664
 30
0.0
 40
3.1500002190554368
  0
CIRCLE
  5
3231D
  8
D-STR-STRC_標識_
 10
36388.935443041308
 20
-11268.52772101664
 30
0.0
 40
2.982000207372479
  0
ARC
  5
3231E
  8
D-STR-STRC_標識_
 10
36388.935443041308
 20
-11268.52772101664
 30
0.0
 40
2.2365001555293591
 50
140.44887176176249
 51
308.77225703085759
  0
LINE
  5
3231F
  8
D-STR-STRC_標識_
 10
36390.659911409493
 20
-11269.951849460391
 30
0.0
 11
36387.534887634421
 21
-11266.78405319286
 31
0.0
  0
LINE
  5
32320
  8
D-STR-STRC_標識_
 10
36390.335998439223
 20
-11270.2713888622
 30
0.0
 11
36387.21097466466
 21
-11267.103592587249
 31
0.0
  0
ARC
  5
32321
  8
D-STR-STRC_標識_
 10
36388.935443041308
 20
-11268.52772101664
 30
0.0
 40
2.2365001555293591
 50
320.44887176176252
 51
128.7722570308575
  0
LINE
  5
32322
  8
D-STR-STRC_標識_
 10
36388.476750491463
 20
-11271.644145661099
 30
0.0
 11
36388.458701171592
 21
-11274.29961421754
 31
0.0
  0
LINE
  5
32323
  8
D-STR-STRC_標識_
 10
36389.351730271082
 20
-11271.65009291659
 30
0.0
 11
36389.333680972981
 21
-11274.30556148201
 31
0.0
  0
VIEWPORT
  5
1B374
 67
     1
  8
0
 10
438.38431988456739
 20
388.81531981741841
 30
0.0
 40
1400.869348008096
 41
742.18243603077963
 68
     1
 69
     1
1001
ACAD
1000
MVIEW
1002
{
1070
    16
1010
0.0
1020
0.0
1030
0.0
1010
0.0
1020
0.0
1030
1.0
1040
0.0
1040
742.18243603077963
1040
438.38431988456739
1040
388.81531981741841
1040
50.0
1040
0.0
1040
0.0
1070
     0
1070
   100
1070
     1
1070
     1
1070
     0
1070
     0
1070
     0
1070
     0
1040
0.0
1040
0.0
1040
0.0
1040
10.0
1040
10.0
1040
10.0
1040
10.0
1070
     0
1002
{
1002
}
1002
}
  0
VIEWPORT
  5
2D527
 67
     1
  8
D-WORK
 10
422.53839697826737
 20
282.71892800258712
 30
0.0
 40
767.6002457486511
 41
496.87769981946212
 68
     3
 69
     2
1001
ACAD
1000
MVIEW
1002
{
1070
    16
1010
0.0
1020
0.0
1030
0.0
1010
0.0
1020
0.0
1030
1.0
1040
0.0
1040
4968.7770173902518
1040
34488.405287953086
1040
-11666.52256875791
1040
50.0
1040
0.0
1040
0.0
1070
     0
1070
   100
1070
     1
1070
     0
1070
     0
1070
     0
1070
     0
1070
     0
1040
0.0
1040
0.0
1040
0.0
1040
0.5
1040
0.5
1040
0.5
1040
0.5
1070
     0
1002
{
1002
}
1002
}
  0
POLYLINE
  5
2E4DB
 67
     1
  8
D-TTL
 66
     1
 10
0.0
 20
0.0
 30
0.0
 70
     1
  0
VERTEX
  5
32382
 67
     1
  8
D-TTL
 10
20.0
 20
574.0
 30
0.0
  0
VERTEX
  5
32383
 67
     1
  8
D-TTL
 10
821.0
 20
574.0
 30
0.0
  0
VERTEX
  5
32384
 67
     1
  8
D-TTL
 10
821.0
 20
20.0
 30
0.0
  0
VERTEX
  5
32385
 67
     1
  8
D-TTL
 10
20.0
 20
20.0
 30
0.0
  0
SEQEND
  5
32386
 67
     1
  8
D-TTL
  0
TEXT
  5
309CB
 67
     1
  8
D-TTL-TXT
 10
567.13868239031399
 20
541.32674999999995
 30
0.0
 40
7.0
  1
Ｓ＝１:１０
  7
MSゴシック
  0
LINE
  5
309CC
 67
     1
  8
D-TTL-LINE
 10
275.87643005930391
 20
538.0
 30
0.0
 11
616.11405740224563
 21
538.0
 31
0.0
  0
TEXT
  5
309CD
 67
     1
  8
D-TTL-TXT
 10
278.43763221325707
 20
541.78502314595391
 30
0.0
 40
10.0
  1

  7
MSゴシック
  0
TEXT
  5
30A4F
 67
     1
  8
D-TTL-TXT
 10
570.6861718789927
 20
541.32674999999995
 30
0.0
 40
7.0
  1

  7
MSゴシック
  0
LINE
  5
30A50
 67
     1
  8
D-TTL-LINE
 10
228.0855913366386
 20
538.0
 30
0.0
 11
622.91440866336143
 21
538.0
 31
0.0
  0
TEXT
  5
30A51
 67
     1
  8
D-TTL-TXT
 10
231.69342500592259
 20
541.78502314595391
 30
0.0
 40
10.0
  1
道路用鉄筋コンクリート側溝　2種（300A）構造図
  7
MSゴシック
  0
VIEWPORT
  5
30B58
 67
     1
  8
D-WORK
 10
544.49760999037255
 20
329.1518025793423
 30
0.0
 40
44.007794494081729
 41
43.639078855609569
 68
     2
 69
     3
1001
ACAD
1000
MVIEW
1002
{
1070
    16
1010
0.0
1020
0.0
1030
0.0
1010
0.0
1020
0.0
1030
1.0
1040
0.0
1040
43.639078855609569
1040
35143.081323521052
1040
-15403.334751113571
1040
50.0
1040
0.0
1040
0.0
1070
     0
1070
   100
1070
     1
1070
     0
1070
     0
1070
     0
1070
     0
1070
     0
1040
0.0
1040
0.0
1040
0.0
1040
0.5
1040
0.5
1040
0.5
1040
0.5
1070
     0
1002
{
1002
}
1002
}
  0
TEXT
  5
30BBC
 67
     1
  8
D-TTL-TXT
 10
738.05436284098914
 20
69.245300650356967
 30
0.0
 40
5.0
  1
2種（300A）構造図
  7
MSゴシック
 72
     1
 11
765.66857603895869
 21
71.745300650356967
 31
0.0
 73
     2
  0
TEXT
  5
30BBD
 67
     1
  8
D-TTL-TXT
 10
726.92421020929453
 20
75.827908376078312
 30
0.0
 40
5.0
  1
道路用鉄筋コンクリート側溝
  7
MSゴシック
 72
     1
 11
769.15771274736562
 21
78.327908376078312
 31
0.0
 73
     2
  0
LINE
  5
30BBE
 67
     1
  8
D-TTL-LINE
 10
689.0
 20
66.5
 30
0.0
 11
821.0
 21
66.5
 31
0.0
  0
LINE
  5
30BBF
 67
     1
  8
D-TTL-LINE
 10
689.0
 20
47.0
 30
0.0
 11
821.0
 21
47.0
 31
0.0
  0
LINE
  5
30BC0
 67
     1
  8
D-TTL-LINE
 10
689.0
 20
30.5
 30
0.0
 11
821.0
 21
30.5
 31
0.0
  0
LINE
  5
30BC1
 67
     1
  8
D-TTL-FRAM
 10
689.0
 20
20.0
 30
0.0
 11
821.0
 21
20.0
 31
0.0
  0
LINE
  5
30BC2
 67
     1
  8
D-TTL-LINE
 10
689.0
 20
83.0
 30
0.0
 11
821.0
 21
83.0
 31
0.0
  0
LINE
  5
30BC3
 67
     1
  8
D-TTL-FRAM
 10
689.0
 20
99.500000000000014
 30
0.0
 11
821.0
 21
99.500000000000014
 31
0.0
  0
LINE
  5
30BC4
 67
     1
  8
D-TTL-LINE
 10
738.49999999999989
 20
56.75
 30
0.0
 11
821.0
 21
56.75
 31
0.0
  0
TEXT
  5
30BC5
 67
     1
  8
D-TTL-TXT
 10
768.63696921326482
 20
49.771119472606188
 30
0.0
 40
5.0
  1
平成17年07月01日
 41
0.9
  7
MSゴシック
  0
TEXT
  5
30BC8
 67
     1
  8
D-TTL-TXT
 10
741.48303670841415
 20
59.521119472606181
 30
0.0
 40
5.0
  1
受付番号
 41
0.8
  7
MSゴシック
  0
TEXT
  5
30BC9
 67
     1
  8
D-TTL-TXT
 10
739.02960797428386
 20
49.771119472606188
 30
0.0
 40
5.0
  1
設計年月日
 41
0.8
  7
MSゴシック
  0
LINE
  5
30BCC
 67
     1
  8
D-TTL-FRAM
 10
689.0
 20
20.0
 30
0.0
 11
689.0
 21
99.500000000000014
 31
0.0
  0
LINE
  5
30BCD
 67
     1
  8
D-TTL-LINE
 10
711.5
 20
30.5
 30
0.0
 11
711.5
 21
99.500000000000014
 31
0.0
  0
LINE
  5
30BCE
 67
     1
  8
D-TTL-LINE
 10
738.49999999999989
 20
30.5
 30
0.0
 11
738.49999999999989
 21
66.5
 31
0.0
  0
LINE
  5
30BCF
 67
     1
  8
D-TTL-LINE
 10
701.0
 20
30.5
 30
0.0
 11
701.0
 21
47.0
 31
0.0
  0
TEXT
  5
30BD0
 67
     1
  8
D-TTL-TXT
 10
703.31262087490165
 20
40.12575374580274
 30
0.0
 40
5.0
  1
承
  7
MSゴシック
  0
TEXT
  5
30BD1
 67
     1
  8
D-TTL-TXT
 10
703.31262087490165
 20
32.662580461920243
 30
0.0
 40
5.0
  1
認
  7
MSゴシック
  0
TEXT
  5
30BD2
 67
     1
  8
D-TTL-TXT
 10
691.07306409357977
 20
53.959842290751112
 30
0.0
 40
5.0
  1
縮　尺
  7
MSゴシック
  0
LINE
  5
30BD3
 67
     1
  8
D-TTL-LINE
 10
728.0
 20
30.5
 30
0.0
 11
728.0
 21
47.0
 31
0.0
  0
TEXT
  5
30BD4
 67
     1
  8
D-TTL-TXT
 10
729.93729235054343
 20
39.821719267946257
 30
0.0
 40
5.0
  1
照
  7
MSゴシック
  0
TEXT
  5
30BD5
 67
     1
  8
D-TTL-TXT
 10
729.93729235054343
 20
32.684353181345159
 30
0.0
 40
5.0
  1
査
  7
MSゴシック
  0
TEXT
  5
30BD6
 67
     1
  8
D-TTL-TXT
 10
718.06948997738073
 20
53.959842290751112
 30
0.0
 40
5.0
  1
1：10
 41
0.9
  7
MSゴシック
  0
TEXT
  5
30BD7
 67
     1
  8
D-TTL-TXT
 10
691.07306409357977
 20
72.6210869714414
 30
0.0
 40
5.0
  1
図面名
  7
MSゴシック
  0
TEXT
  5
30BD8
 67
     1
  8
D-TTL-TXT
 10
691.07306409357977
 20
89.121086971441386
 30
0.0
 40
5.0
  1
工事名
  7
MSゴシック
  0
LINE
  5
30BD9
 67
     1
  8
D-TTL-LINE
 10
765.5
 20
30.5
 30
0.0
 11
765.5
 21
66.5
 31
0.0
  0
TEXT
  5
30BDB
 67
     1
  8
D-TTL-TXT
 10
756.93729235054343
 20
39.821719267946257
 30
0.0
 40
5.0
  1
設
  7
MSゴシック
  0
LINE
  5
30BDC
 67
     1
  8
D-TTL-LINE
 10
755.0
 20
30.5
 30
0.0
 11
755.0
 21
47.0
 31
0.0
  0
TEXT
  5
30BDE
 67
     1
  8
D-TTL-TXT
 10
756.93729235054343
 20
32.684353181345159
 30
0.0
 40
5.0
  1
計
  7
MSゴシック
  0
LINE
  5
30BE0
 67
     1
  8
D-TTL-LINE
 10
809.0
 20
30.5
 30
0.0
 11
809.0
 21
47.0
 31
0.0
  0
LINE
  5
30BE1
 67
     1
  8
D-TTL-LINE
 10
782.0
 20
30.5
 30
0.0
 11
782.0
 21
47.0
 31
0.0
  0
TEXT
  5
30BE2
 67
     1
  8
D-TTL-TXT
 10
783.93729235054343
 20
39.821719267946257
 30
0.0
 40
5.0
  1
製
  7
MSゴシック
  0
LINE
  5
30BE3
 67
     1
  8
D-TTL-LINE
 10
792.49999999999989
 20
30.5
 30
0.0
 11
792.49999999999989
 21
47.0
 31
0.0
  0
TEXT
  5
30BE7
 67
     1
  8
D-TTL-TXT
 10
783.93729235054343
 20
32.684353181345159
 30
0.0
 40
5.0
  1
図
  7
MSゴシック
  0
LINE
  5
30BE8
 67
     1
  8
D-TTL-FRAM
 10
821.0
 20
20.0
 30
0.0
 11
821.0
 21
99.500000000000014
 31
0.0
  0
ENDSEC
  0
EOF
